  0
SECTION
  2
HEADER
  9
$ACADVER
  1
AC1015
  9
$ACADMAINTVER
 70
     6
  9
$DWGCODEPAGE
  3
ANSI_1252
  9
$INSBASE
 10
0.0
 20
0.0
 30
0.0
  9
$EXTMIN
 10
0.0
 20
0.0
 30
0.0
  9
$EXTMAX
 10
431.8
 20
279.4
 30
0.0
  9
$LIMMIN
 10
0.0
 20
0.0
  9
$LIMMAX
 10
431.8
 20
279.4
  9
$ORTHOMODE
 70
     0
  9
$REGENMODE
 70
     1
  9
$FILLMODE
 70
     1
  9
$QTEXTMODE
 70
     0
  9
$MIRRTEXT
 70
     1
  9
$LTSCALE
 40
1.0
  9
$ATTMODE
 70
     1
  9
$TEXTSIZE
 40
4.9388888889
  9
$TRACEWID
 40
1.0
  9
$TEXTSTYLE
  7
Standard
  9
$CLAYER
  8
0
  9
$CELTYPE
  6
ByLayer
  9
$CECOLOR
 62
   256
  9
$CELTSCALE
 40
1.0
  9
$DISPSILH
 70
     0
  9
$DIMSCALE
 40
1.0
  9
$DIMASZ
 40
5.1366373698
  9
$DIMEXO
 40
2.0
  9
$DIMDLI
 40
3.75
  9
$DIMRND
 40
0.0
  9
$DIMDLE
 40
0.0
  9
$DIMEXE
 40
2.0
  9
$DIMTP
 40
0.0
  9
$DIMTM
 40
0.0
  9
$DIMTXT
 40
7.0555555556
  9
$DIMCEN
 40
2.5
  9
$DIMTSZ
 40
0.0
  9
$DIMTOL
 70
     0
  9
$DIMLIM
 70
     0
  9
$DIMTIH
 70
     1
  9
$DIMTOH
 70
     1
  9
$DIMSE1
 70
     0
  9
$DIMSE2
 70
     0
  9
$DIMTAD
 70
     1
  9
$DIMZIN
 70
     0
  9
$DIMBLK
  1

  9
$DIMASO
 70
     1
  9
$DIMSHO
 70
     1
  9
$DIMPOST
  1

  9
$DIMAPOST
  1

  9
$DIMALT
 70
     0
  9
$DIMALTD
 70
     3
  9
$DIMALTF
 40
0.0393700787
  9
$DIMLFAC
 40
1.0
  9
$DIMTOFL
 70
     1
  9
$DIMTVP
 40
0.0
  9
$DIMTIX
 70
     0
  9
$DIMSOXD
 70
     0
  9
$DIMSAH
 70
     0
  9
$DIMBLK1
  1

  9
$DIMBLK2
  1

  9
$DIMSTYLE
  2
ISO-25
  9
$DIMCLRD
 70
     0
  9
$DIMCLRE
 70
     0
  9
$DIMCLRT
 70
     0
  9
$DIMTFAC
 40
1.0
  9
$DIMGAP
 40
2.0
  9
$DIMJUST
 70
     0
  9
$DIMSD1
 70
     0
  9
$DIMSD2
 70
     0
  9
$DIMTOLJ
 70
     0
  9
$DIMTZIN
 70
     0
  9
$DIMALTZ
 70
     0
  9
$DIMALTTZ
 70
     0
  9
$DIMUPT
 70
     0
  9
$DIMDEC
 70
     2
  9
$DIMTDEC
 70
     2
  9
$DIMALTU
 70
     2
  9
$DIMALTTD
 70
     3
  9
$DIMTXSTY
  7
Standard
  9
$DIMAUNIT
 70
     0
  9
$DIMADEC
 70
     2
  9
$DIMALTRND
 40
0.0
  9
$DIMAZIN
 70
     0
  9
$DIMDSEP
 70
    44
  9
$DIMATFIT
 70
     3
  9
$DIMFRAC
 70
     0
  9
$DIMLDRBLK
  1

  9
$DIMLUNIT
 70
     2
  9
$DIMLWD
 70
    -2
  9
$DIMLWE
 70
    -2
  9
$DIMTMOVE
 70
     0
  9
$LUNITS
 70
     2
  9
$LUPREC
 70
     2
  9
$SKETCHINC
 40
1.0
  9
$FILLETRAD
 40
10.0
  9
$AUNITS
 70
     0
  9
$AUPREC
 70
     2
  9
$MENU
  1
.
  9
$ELEVATION
 40
0.0
  9
$PELEVATION
 40
0.0
  9
$THICKNESS
 40
0.0
  9
$LIMCHECK
 70
     0
  9
$CHAMFERA
 40
0.0
  9
$CHAMFERB
 40
0.0
  9
$CHAMFERC
 40
0.0
  9
$CHAMFERD
 40
0.0
  9
$SKPOLY
 70
     0
  9
$TDCREATE
 40
2457690.544303854
  9
$TDUCREATE
 40
2457690.460970521
  9
$TDUPDATE
 40
2457690.544305012
  9
$TDUUPDATE
 40
2457690.460971678
  9
$TDINDWG
 40
0.0000000116
  9
$TDUSRTIMER
 40
0.0000000116
  9
$USRTIMER
 70
     1
  9
$ANGBASE
 50
0.0
  9
$ANGDIR
 70
     0
  9
$PDMODE
 70
     0
  9
$PDSIZE
 40
-1.0
  9
$PLINEWID
 40
0.0
  9
$SPLFRAME
 70
     0
  9
$SPLINETYPE
 70
     6
  9
$SPLINESEGS
 70
     8
  9
$HANDSEED
  5
49B
  9
$SURFTAB1
 70
     6
  9
$SURFTAB2
 70
     6
  9
$SURFTYPE
 70
     6
  9
$SURFU
 70
     6
  9
$SURFV
 70
     6
  9
$UCSBASE
  2

  9
$UCSNAME
  2

  9
$UCSORG
 10
0.0
 20
0.0
 30
0.0
  9
$UCSXDIR
 10
1.0
 20
0.0
 30
0.0
  9
$UCSYDIR
 10
0.0
 20
1.0
 30
0.0
  9
$UCSORTHOREF
  2

  9
$UCSORTHOVIEW
 70
     0
  9
$UCSORGTOP
 10
0.0
 20
0.0
 30
0.0
  9
$UCSORGBOTTOM
 10
0.0
 20
0.0
 30
0.0
  9
$UCSORGLEFT
 10
0.0
 20
0.0
 30
0.0
  9
$UCSORGRIGHT
 10
0.0
 20
0.0
 30
0.0
  9
$UCSORGFRONT
 10
0.0
 20
0.0
 30
0.0
  9
$UCSORGBACK
 10
0.0
 20
0.0
 30
0.0
  9
$PUCSBASE
  2

  9
$PUCSNAME
  2

  9
$PUCSORG
 10
0.0
 20
0.0
 30
0.0
  9
$PUCSXDIR
 10
1.0
 20
0.0
 30
0.0
  9
$PUCSYDIR
 10
0.0
 20
1.0
 30
0.0
  9
$PUCSORTHOREF
  2

  9
$PUCSORTHOVIEW
 70
     0
  9
$PUCSORGTOP
 10
0.0
 20
0.0
 30
0.0
  9
$PUCSORGBOTTOM
 10
0.0
 20
0.0
 30
0.0
  9
$PUCSORGLEFT
 10
0.0
 20
0.0
 30
0.0
  9
$PUCSORGRIGHT
 10
0.0
 20
0.0
 30
0.0
  9
$PUCSORGFRONT
 10
0.0
 20
0.0
 30
0.0
  9
$PUCSORGBACK
 10
0.0
 20
0.0
 30
0.0
  9
$USERI1
 70
     0
  9
$USERI2
 70
     0
  9
$USERI3
 70
     0
  9
$USERI4
 70
     0
  9
$USERI5
 70
     0
  9
$USERR1
 40
0.0
  9
$USERR2
 40
0.0
  9
$USERR3
 40
0.0
  9
$USERR4
 40
0.0
  9
$USERR5
 40
0.0
  9
$WORLDVIEW
 70
     1
  9
$SHADEDGE
 70
     3
  9
$SHADEDIF
 70
    70
  9
$TILEMODE
 70
     1
  9
$MAXACTVP
 70
    64
  9
$PINSBASE
 10
0.0
 20
0.0
 30
0.0
  9
$PLIMCHECK
 70
     0
  9
$PEXTMIN
 10
1.0000000000E+20
 20
1.0000000000E+20
 30
1.0000000000E+20
  9
$PEXTMAX
 10
-1.0000000000E+20
 20
-1.0000000000E+20
 30
-1.0000000000E+20
  9
$PLIMMIN
 10
0.0
 20
0.0
  9
$PLIMMAX
 10
420.0
 20
297.0
  9
$UNITMODE
 70
     0
  9
$VISRETAIN
 70
     1
  9
$PLINEGEN
 70
     0
  9
$PSLTSCALE
 70
     1
  9
$TREEDEPTH
 70
  3020
  9
$CMLSTYLE
  2
Standard
  9
$CMLJUST
 70
     0
  9
$CMLSCALE
 40
20.0
  9
$PROXYGRAPHICS
 70
     1
  9
$MEASUREMENT
 70
     1
  9
$CELWEIGHT
370
    -1
  9
$ENDCAPS
280
     0
  9
$JOINSTYLE
280
     0
  9
$LWDISPLAY
290
     1
  9
$INSUNITS
 70
     4
  9
$HYPERLINKBASE
  1

  9
$STYLESHEET
  1

  9
$XEDIT
290
     1
  9
$CEPSNTYPE
380
     0
  9
$PSTYLEMODE
290
     1
  9
$FINGERPRINTGUID
  2
{2B965C6A-2549-49C1-A8A2-5F5FC07FD3EA}
  9
$VERSIONGUID
  2
{FAEB1C32-E019-11D5-929B-00C0DF256EC4}
  9
$EXTNAMES
290
     1
  9
$PSVPSCALE
 40
0.0
  9
$OLESTARTUP
290
     0
  0
ENDSEC
  0
SECTION
  2
CLASSES
  0
CLASS
  1
ACDBDICTIONARYWDFLT
  2
AcDbDictionaryWithDefault
  3
ObjectDBX Classes
 90
        0
280
     0
281
     0
  0
CLASS
  1
VISUALSTYLE
  2
AcDbVisualStyle
  3
ObjectDBX Classes
 90
     4095
280
     0
281
     0
  0
CLASS
  1
MATERIAL
  2
AcDbMaterial
  3
ObjectDBX Classes
 90
     1153
280
     0
281
     0
  0
CLASS
  1
SCALE
  2
AcDbScale
  3
ObjectDBX Classes
 90
     1153
280
     0
281
     0
  0
CLASS
  1
TABLESTYLE
  2
AcDbTableStyle
  3
ObjectDBX Classes
 90
     4095
280
     0
281
     0
  0
CLASS
  1
MLEADERSTYLE
  2
AcDbMLeaderStyle
  3
ACDB_MLEADERSTYLE_CLASS
 90
     4095
280
     0
281
     0
  0
CLASS
  1
SUN
  2
AcDbSun
  3
SCENEOE
 90
     1153
280
     0
281
     0
  0
CLASS
  1
ACDBPLACEHOLDER
  2
AcDbPlaceHolder
  3
ObjectDBX Classes
 90
        0
280
     0
281
     0
  0
CLASS
  1
LAYOUT
  2
AcDbLayout
  3
ObjectDBX Classes
 90
        0
280
     0
281
     0
  0
ENDSEC
  0
SECTION
  2
TABLES
  0
TABLE
  2
VPORT
  5
8
330
0
100
AcDbSymbolTable
 70
     1
  0
VPORT
  5
29
330
8
100
AcDbSymbolTableRecord
100
AcDbViewportTableRecord
  2
*Active
 70
     0
 10
0.0
 20
0.0
 11
1.0
 21
1.0
 12
215.9
 22
139.7
 13
0.0
 23
0.0
 14
10.0
 24
10.0
 15
10.0
 25
10.0
 16
0.0
 26
0.0
 36
1.0
 17
0.0
 27
0.0
 37
0.0
 40
279.4
 41
1.5454545455
 42
50.0
 43
0.0
 44
0.0
 50
0.0
 51
0.0
 71
     0
 72
  2000
 73
     1
 74
     3
 75
     0
 76
     0
 77
     0
 78
     0
281
     0
 65
     1
110
0.0
120
0.0
130
0.0
111
1.0
121
0.0
131
0.0
112
0.0
122
1.0
132
0.0
 79
     0
146
0.0
  0
ENDTAB
  0
TABLE
  2
LTYPE
  5
5
330
0
100
AcDbSymbolTable
 70
     6
  0
LTYPE
  5
14
330
5
100
AcDbSymbolTableRecord
100
AcDbLinetypeTableRecord
  2
ByBlock
 70
     0
  3

 72
    65
 73
     0
 40
0.0
  0
LTYPE
  5
15
330
5
100
AcDbSymbolTableRecord
100
AcDbLinetypeTableRecord
  2
ByLayer
 70
     0
  3

 72
    65
 73
     0
 40
0.0
  0
LTYPE
  5
16
330
5
100
AcDbSymbolTableRecord
100
AcDbLinetypeTableRecord
  2
Continuous
 70
     0
  3
Solid line
 72
    65
 73
     0
 40
0.0
  0
LTYPE
  5
6E
330
5
100
AcDbSymbolTableRecord
100
AcDbLinetypeTableRecord
  2
HIDDEN
 70
     0
  3
Hidden __ __ __ __ __ __ __ __ __ __ __ __ __ __
 72
    65
 73
     2
 40
1.905
 49
1.27
 74
     0
 49
-0.635
 74
     0
  0
LTYPE
  5
6F
330
5
100
AcDbSymbolTableRecord
100
AcDbLinetypeTableRecord
  2
PHANTOM
 70
     0
  3
Phantom ______  __  __  ______  __  __  ______
 72
    65
 73
     6
 40
12.7
 49
6.35
 74
     0
 49
-1.27
 74
     0
 49
1.27
 74
     0
 49
-1.27
 74
     0
 49
1.27
 74
     0
 49
-1.27
 74
     0
  0
LTYPE
  5
70
330
5
100
AcDbSymbolTableRecord
100
AcDbLinetypeTableRecord
  2
CENTER
 70
     0
  3
Center ____ _ ____ _ ____ _ ____ _ ____ _ ____
 72
    65
 73
     4
 40
10.16
 49
6.35
 74
     0
 49
-1.27
 74
     0
 49
1.27
 74
     0
 49
-1.27
 74
     0
  0
LTYPE
  5
71
330
5
100
AcDbSymbolTableRecord
100
AcDbLinetypeTableRecord
  2
CENTERX2
 70
     0
  3
Center (2x) ________  __  ________  __  _____
 72
    65
 73
     4
 40
20.32
 49
12.7
 74
     0
 49
-2.54
 74
     0
 49
2.54
 74
     0
 49
-2.54
 74
     0
  0
LTYPE
  5
72
330
5
100
AcDbSymbolTableRecord
100
AcDbLinetypeTableRecord
  2
DOT2
 70
     0
  3
Dot (.5x) ........................................
 72
    65
 73
     2
 40
0.635
 49
0.0
 74
     0
 49
-0.635
 74
     0
  0
ENDTAB
  0
TABLE
  2
LAYER
  5
2
330
0
100
AcDbSymbolTable
 70
     3
  0
LAYER
  5
10
330
2
100
AcDbSymbolTableRecord
100
AcDbLayerTableRecord
  2
0
 70
     0
 62
     7
  6
Continuous
370
    -3
390
F
  0
LAYER
  5
73
330
2
100
AcDbSymbolTableRecord
100
AcDbLayerTableRecord
  2
SLD-0
 70
     0
 62
   179
  6
Continuous
370
    -3
390
F
  0
LAYER
  5
74
330
2
100
AcDbSymbolTableRecord
100
AcDbLayerTableRecord
  2
EBENE_1
 70
     0
 62
   179
  6
Continuous
370
    -3
390
F
  0
ENDTAB
  0
TABLE
  2
STYLE
  5
3
330
0
100
AcDbSymbolTable
 70
     3
  0
STYLE
  5
11
330
3
100
AcDbSymbolTableRecord
100
AcDbTextStyleTableRecord
  2
Standard
 70
     0
 40
0.0
 41
1.0
 50
0.0
 71
     0
 42
4.9388888889
  3
txt
  4

  0
STYLE
  5
96
330
3
100
AcDbSymbolTableRecord
100
AcDbTextStyleTableRecord
  2
SLDTEXTSTYLE0
 70
     0
 40
0.0
 41
0.605
 50
0.0
 71
     0
 42
4.9388888889
  3
TXT
  4

  0
STYLE
  5
16E
330
3
100
AcDbSymbolTableRecord
100
AcDbTextStyleTableRecord
  2
SLDTEXTSTYLE1
 70
     0
 40
0.0
 41
0.75
 50
0.0
 71
     0
 42
4.9388888889
  3
TXT
  4

  0
ENDTAB
  0
TABLE
  2
VIEW
  5
6
330
0
100
AcDbSymbolTable
 70
     0
  0
ENDTAB
  0
TABLE
  2
UCS
  5
7
330
0
100
AcDbSymbolTable
 70
     0
  0
ENDTAB
  0
TABLE
  2
APPID
  5
9
330
0
100
AcDbSymbolTable
 70
     1
  0
APPID
  5
12
330
9
100
AcDbSymbolTableRecord
100
AcDbRegAppTableRecord
  2
ACAD
 70
     0
  0
ENDTAB
  0
TABLE
  2
DIMSTYLE
  5
A
330
0
100
AcDbSymbolTable
 70
     1
100
AcDbDimStyleTable
  0
DIMSTYLE
105
27
330
A
100
AcDbSymbolTableRecord
100
AcDbDimStyleTableRecord
  2
ISO-25
 70
     0
 41
2.5
 42
0.625
 43
3.75
 44
1.25
 73
     0
 74
     0
 77
     1
 78
     8
140
2.5
141
2.5
143
0.0393700787
147
0.625
171
     3
172
     1
178
     0
271
     2
272
     2
274
     3
278
    44
283
     0
284
     8
340
11
  0
ENDTAB
  0
TABLE
  2
BLOCK_RECORD
  5
1
330
0
100
AcDbSymbolTable
 70
    25
  0
BLOCK_RECORD
  5
1F
330
1
100
AcDbSymbolTableRecord
100
AcDbBlockTableRecord
  2
*Model_Space
340
22
  0
BLOCK_RECORD
  5
1B
330
1
100
AcDbSymbolTableRecord
100
AcDbBlockTableRecord
  2
*Paper_Space
340
1E
  0
BLOCK_RECORD
  5
23
330
1
100
AcDbSymbolTableRecord
100
AcDbBlockTableRecord
  2
*Paper_Space0
340
26
  0
BLOCK_RECORD
  5
75
330
1
100
AcDbSymbolTableRecord
100
AcDbBlockTableRecord
  2
Block1
340
0
102
{BLKREFS
331
16D
102
}
  0
BLOCK_RECORD
  5
8C
330
1
100
AcDbSymbolTableRecord
100
AcDbBlockTableRecord
  2
SW_BLOCK_DIMENSION_0
340
0
102
{BLKREFS
331
98
102
}
  0
BLOCK_RECORD
  5
8F
330
1
100
AcDbSymbolTableRecord
100
AcDbBlockTableRecord
  2
_ORIGIN
340
0
102
{BLKREFS
331
94
331
104
102
}
  0
BLOCK_RECORD
  5
99
330
1
100
AcDbSymbolTableRecord
100
AcDbBlockTableRecord
  2
SW_BLOCK_DIMENSION_1
340
0
102
{BLKREFS
331
A0
102
}
  0
BLOCK_RECORD
  5
A1
330
1
100
AcDbSymbolTableRecord
100
AcDbBlockTableRecord
  2
SW_BLOCK_DIMENSION_2
340
0
102
{BLKREFS
331
A8
102
}
  0
BLOCK_RECORD
  5
A9
330
1
100
AcDbSymbolTableRecord
100
AcDbBlockTableRecord
  2
SW_BLOCK_DIMENSION_3
340
0
102
{BLKREFS
331
B0
102
}
  0
BLOCK_RECORD
  5
B1
330
1
100
AcDbSymbolTableRecord
100
AcDbBlockTableRecord
  2
SW_BLOCK_DIMENSION_4
340
0
102
{BLKREFS
331
B8
102
}
  0
BLOCK_RECORD
  5
B9
330
1
100
AcDbSymbolTableRecord
100
AcDbBlockTableRecord
  2
SW_BLOCK_DIMENSION_5
340
0
102
{BLKREFS
331
C0
102
}
  0
BLOCK_RECORD
  5
C1
330
1
100
AcDbSymbolTableRecord
100
AcDbBlockTableRecord
  2
SW_BLOCK_DIMENSION_6
340
0
102
{BLKREFS
331
C8
102
}
  0
BLOCK_RECORD
  5
C9
330
1
100
AcDbSymbolTableRecord
100
AcDbBlockTableRecord
  2
SW_BLOCK_DIMENSION_7
340
0
102
{BLKREFS
331
D0
102
}
  0
BLOCK_RECORD
  5
D1
330
1
100
AcDbSymbolTableRecord
100
AcDbBlockTableRecord
  2
SW_BLOCK_DIMENSION_8
340
0
102
{BLKREFS
331
D8
102
}
  0
BLOCK_RECORD
  5
D9
330
1
100
AcDbSymbolTableRecord
100
AcDbBlockTableRecord
  2
SW_BLOCK_DIMENSION_9
340
0
102
{BLKREFS
331
E0
102
}
  0
BLOCK_RECORD
  5
E1
330
1
100
AcDbSymbolTableRecord
100
AcDbBlockTableRecord
  2
SW_BLOCK_DIMENSION_10
340
0
102
{BLKREFS
331
E8
102
}
  0
BLOCK_RECORD
  5
E9
330
1
100
AcDbSymbolTableRecord
100
AcDbBlockTableRecord
  2
SW_BLOCK_DIMENSION_11
340
0
102
{BLKREFS
331
F0
102
}
  0
BLOCK_RECORD
  5
F1
330
1
100
AcDbSymbolTableRecord
100
AcDbBlockTableRecord
  2
SW_BLOCK_DIMENSION_12
340
0
102
{BLKREFS
331
F8
102
}
  0
BLOCK_RECORD
  5
F9
330
1
100
AcDbSymbolTableRecord
100
AcDbBlockTableRecord
  2
SW_BLOCK_DIMENSION_13
340
0
102
{BLKREFS
331
100
102
}
  0
BLOCK_RECORD
  5
101
330
1
100
AcDbSymbolTableRecord
100
AcDbBlockTableRecord
  2
SW_BLOCK_DIMENSION_14
340
0
102
{BLKREFS
331
110
102
}
  0
BLOCK_RECORD
  5
111
330
1
100
AcDbSymbolTableRecord
100
AcDbBlockTableRecord
  2
SW_BLOCK_DIMENSION_15
340
0
102
{BLKREFS
331
121
102
}
  0
BLOCK_RECORD
  5
122
330
1
100
AcDbSymbolTableRecord
100
AcDbBlockTableRecord
  2
SW_BLOCK_DIMENSION_16
340
0
102
{BLKREFS
331
132
102
}
  0
BLOCK_RECORD
  5
133
330
1
100
AcDbSymbolTableRecord
100
AcDbBlockTableRecord
  2
SW_BLOCK_DIMENSION_17
340
0
102
{BLKREFS
331
143
102
}
  0
BLOCK_RECORD
  5
144
330
1
100
AcDbSymbolTableRecord
100
AcDbBlockTableRecord
  2
SW_BLOCK_DIMENSION_18
340
0
102
{BLKREFS
331
154
102
}
  0
BLOCK_RECORD
  5
155
330
1
100
AcDbSymbolTableRecord
100
AcDbBlockTableRecord
  2
SW_BLOCK_DIMENSION_19
340
0
102
{BLKREFS
331
165
102
}
  0
BLOCK_RECORD
  5
166
330
1
100
AcDbSymbolTableRecord
100
AcDbBlockTableRecord
  2
SW_NOTE_0
340
0
102
{BLKREFS
331
16B
102
}
  0
BLOCK_RECORD
  5
171
330
1
100
AcDbSymbolTableRecord
100
AcDbBlockTableRecord
  2
SW_NOTE_1
340
0
102
{BLKREFS
331
178
102
}
  0
ENDTAB
  0
ENDSEC
  0
SECTION
  2
BLOCKS
  0
BLOCK
  5
20
330
1F
100
AcDbEntity
  8
0
100
AcDbBlockBegin
  2
*Model_Space
 70
     0
 10
0.0
 20
0.0
 30
0.0
  3
*Model_Space
  1

  0
ENDBLK
  5
21
330
1F
100
AcDbEntity
  8
0
100
AcDbBlockEnd
  0
BLOCK
  5
1C
330
1B
100
AcDbEntity
 67
     1
  8
0
100
AcDbBlockBegin
  2
*Paper_Space
 70
     0
 10
0.0
 20
0.0
 30
0.0
  3
*Paper_Space
  1

  0
ENDBLK
  5
1D
330
1B
100
AcDbEntity
 67
     1
  8
0
100
AcDbBlockEnd
  0
BLOCK
  5
24
330
23
100
AcDbEntity
  8
0
100
AcDbBlockBegin
  2
*Paper_Space0
 70
     0
 10
0.0
 20
0.0
 30
0.0
  3
*Paper_Space0
  1

  0
ENDBLK
  5
25
330
23
100
AcDbEntity
  8
0
100
AcDbBlockEnd
  0
BLOCK
  5
76
330
75
100
AcDbEntity
  8
0
100
AcDbBlockBegin
  2
Block1
 70
     0
 10
0.0
 20
0.0
 30
0.0
  3
Block1
  1

  0
LINE
  5
78
330
75
100
AcDbEntity
  8
EBENE_1
100
AcDbLine
 10
363.6834285714
 20
41.3579706949
 30
0.0
 11
388.6834285714
 21
41.3579706949
 31
0.0
  0
LINE
  5
79
330
75
100
AcDbEntity
  8
EBENE_1
100
AcDbLine
 10
374.9034285714
 20
41.3579706949
 30
0.0
 11
374.9034285714
 21
171.3579706949
 31
0.0
  0
LINE
  5
7A
330
75
100
AcDbEntity
  8
EBENE_1
100
AcDbLine
 10
374.9034285714
 20
51.3579706949
 30
0.0
 11
384.9034285714
 21
51.3579706949
 31
0.0
  0
LINE
  5
7B
330
75
100
AcDbEntity
  8
EBENE_1
100
AcDbLine
 10
374.9034285714
 20
61.3579706949
 30
0.0
 11
384.9034285714
 21
61.3579706949
 31
0.0
  0
LINE
  5
7C
330
75
100
AcDbEntity
  8
EBENE_1
100
AcDbLine
 10
374.9034285714
 20
71.3579706949
 30
0.0
 11
384.9034285714
 21
71.3579706949
 31
0.0
  0
LINE
  5
7D
330
75
100
AcDbEntity
  8
EBENE_1
100
AcDbLine
 10
374.9034285714
 20
81.3579706949
 30
0.0
 11
384.9034285714
 21
81.3579706949
 31
0.0
  0
LINE
  5
7E
330
75
100
AcDbEntity
  8
EBENE_1
100
AcDbLine
 10
374.9034285714
 20
91.3579706949
 30
0.0
 11
384.9034285714
 21
91.3579706949
 31
0.0
  0
LINE
  5
7F
330
75
100
AcDbEntity
  8
EBENE_1
100
AcDbLine
 10
374.9034285714
 20
101.3579706949
 30
0.0
 11
384.9034285714
 21
101.3579706949
 31
0.0
  0
LINE
  5
80
330
75
100
AcDbEntity
  8
EBENE_1
100
AcDbLine
 10
374.9034285714
 20
111.3579706949
 30
0.0
 11
384.9034285714
 21
111.3579706949
 31
0.0
  0
LINE
  5
81
330
75
100
AcDbEntity
  8
EBENE_1
100
AcDbLine
 10
374.9034285714
 20
121.3579706949
 30
0.0
 11
384.9034285714
 21
121.3579706949
 31
0.0
  0
LINE
  5
82
330
75
100
AcDbEntity
  8
EBENE_1
100
AcDbLine
 10
374.9034285714
 20
131.3579706949
 30
0.0
 11
384.9034285714
 21
131.3579706949
 31
0.0
  0
LINE
  5
83
330
75
100
AcDbEntity
  8
EBENE_1
100
AcDbLine
 10
374.9034285714
 20
141.3579706949
 30
0.0
 11
384.9034285714
 21
141.3579706949
 31
0.0
  0
LINE
  5
84
330
75
100
AcDbEntity
  8
EBENE_1
100
AcDbLine
 10
374.9034285714
 20
151.3579706949
 30
0.0
 11
384.9034285714
 21
151.3579706949
 31
0.0
  0
LINE
  5
85
330
75
100
AcDbEntity
  8
EBENE_1
100
AcDbLine
 10
374.9034285714
 20
161.3579706949
 30
0.0
 11
384.9034285714
 21
161.3579706949
 31
0.0
  0
LINE
  5
86
330
75
100
AcDbEntity
  8
EBENE_1
100
AcDbLine
 10
374.9034285714
 20
171.3579706949
 30
0.0
 11
384.9034285714
 21
171.3579706949
 31
0.0
  0
LINE
  5
87
330
75
100
AcDbEntity
  8
EBENE_1
100
AcDbLine
 10
374.9034285714
 20
66.7579706949
 30
0.0
 11
362.9034285714
 21
66.7579706949
 31
0.0
  0
LINE
  5
88
330
75
100
AcDbEntity
  8
EBENE_1
100
AcDbLine
 10
374.9034285714
 20
92.1579706949
 30
0.0
 11
362.9034285714
 21
92.1579706949
 31
0.0
  0
LINE
  5
89
330
75
100
AcDbEntity
  8
EBENE_1
100
AcDbLine
 10
374.9034285714
 20
117.5579706949
 30
0.0
 11
362.9034285714
 21
117.5579706949
 31
0.0
  0
LINE
  5
8A
330
75
100
AcDbEntity
  8
EBENE_1
100
AcDbLine
 10
374.9034285714
 20
142.9579706949
 30
0.0
 11
362.9034285714
 21
142.9579706949
 31
0.0
  0
LINE
  5
8B
330
75
100
AcDbEntity
  8
EBENE_1
100
AcDbLine
 10
374.9034285714
 20
168.3579706949
 30
0.0
 11
362.9034285714
 21
168.3579706949
 31
0.0
  0
INSERT
  5
98
330
75
100
AcDbEntity
  8
EBENE_1
100
AcDbBlockReference
  2
SW_BLOCK_DIMENSION_0
 10
397.2096946378
 20
38.9914197296
 30
0.0
  0
INSERT
  5
A0
330
75
100
AcDbEntity
  8
EBENE_1
100
AcDbBlockReference
  2
SW_BLOCK_DIMENSION_1
 10
397.2096946378
 20
48.9914197296
 30
0.0
  0
INSERT
  5
A8
330
75
100
AcDbEntity
  8
EBENE_1
100
AcDbBlockReference
  2
SW_BLOCK_DIMENSION_2
 10
397.2096946378
 20
58.9914197296
 30
0.0
  0
INSERT
  5
B0
330
75
100
AcDbEntity
  8
EBENE_1
100
AcDbBlockReference
  2
SW_BLOCK_DIMENSION_3
 10
397.2096946378
 20
68.9914197296
 30
0.0
  0
INSERT
  5
B8
330
75
100
AcDbEntity
  8
EBENE_1
100
AcDbBlockReference
  2
SW_BLOCK_DIMENSION_4
 10
397.2096946378
 20
78.9914197296
 30
0.0
  0
INSERT
  5
C0
330
75
100
AcDbEntity
  8
EBENE_1
100
AcDbBlockReference
  2
SW_BLOCK_DIMENSION_5
 10
397.2096946378
 20
88.9914197296
 30
0.0
  0
INSERT
  5
C8
330
75
100
AcDbEntity
  8
EBENE_1
100
AcDbBlockReference
  2
SW_BLOCK_DIMENSION_6
 10
397.2096946378
 20
98.9914197296
 30
0.0
  0
INSERT
  5
D0
330
75
100
AcDbEntity
  8
EBENE_1
100
AcDbBlockReference
  2
SW_BLOCK_DIMENSION_7
 10
397.2096946378
 20
108.9914197296
 30
0.0
  0
INSERT
  5
D8
330
75
100
AcDbEntity
  8
EBENE_1
100
AcDbBlockReference
  2
SW_BLOCK_DIMENSION_8
 10
397.2096946378
 20
118.9914197296
 30
0.0
  0
INSERT
  5
E0
330
75
100
AcDbEntity
  8
EBENE_1
100
AcDbBlockReference
  2
SW_BLOCK_DIMENSION_9
 10
397.2096946378
 20
128.9914197296
 30
0.0
  0
INSERT
  5
E8
330
75
100
AcDbEntity
  8
EBENE_1
100
AcDbBlockReference
  2
SW_BLOCK_DIMENSION_10
 10
397.2096946378
 20
138.9914197296
 30
0.0
  0
INSERT
  5
F0
330
75
100
AcDbEntity
  8
EBENE_1
100
AcDbBlockReference
  2
SW_BLOCK_DIMENSION_11
 10
397.2096946378
 20
148.9914197296
 30
0.0
  0
INSERT
  5
F8
330
75
100
AcDbEntity
  8
EBENE_1
100
AcDbBlockReference
  2
SW_BLOCK_DIMENSION_12
 10
397.2096946378
 20
158.9914197296
 30
0.0
  0
INSERT
  5
100
330
75
100
AcDbEntity
  8
EBENE_1
100
AcDbBlockReference
  2
SW_BLOCK_DIMENSION_13
 10
397.2096946378
 20
168.9914197296
 30
0.0
  0
INSERT
  5
110
330
75
100
AcDbEntity
  8
EBENE_1
100
AcDbBlockReference
  2
SW_BLOCK_DIMENSION_14
 10
337.2987953614
 20
36.1691980072
 30
0.0
  0
INSERT
  5
121
330
75
100
AcDbEntity
  8
EBENE_1
100
AcDbBlockReference
  2
SW_BLOCK_DIMENSION_15
 10
337.2987953614
 20
61.5691980072
 30
0.0
  0
INSERT
  5
132
330
75
100
AcDbEntity
  8
EBENE_1
100
AcDbBlockReference
  2
SW_BLOCK_DIMENSION_16
 10
337.2987953614
 20
86.9691980072
 30
0.0
  0
INSERT
  5
143
330
75
100
AcDbEntity
  8
EBENE_1
100
AcDbBlockReference
  2
SW_BLOCK_DIMENSION_17
 10
337.2987953614
 20
112.3691980072
 30
0.0
  0
INSERT
  5
154
330
75
100
AcDbEntity
  8
EBENE_1
100
AcDbBlockReference
  2
SW_BLOCK_DIMENSION_18
 10
336.8284243759
 20
137.7691980072
 30
0.0
  0
INSERT
  5
165
330
75
100
AcDbEntity
  8
EBENE_1
100
AcDbBlockReference
  2
SW_BLOCK_DIMENSION_19
 10
337.2987953614
 20
163.1691980072
 30
0.0
  0
INSERT
  5
16B
330
75
100
AcDbEntity
  8
EBENE_1
 62
   179
100
AcDbBlockReference
  2
SW_NOTE_0
 10
337.5586028241
 20
28.8175207347
 30
0.0
  0
MTEXT
  5
16C
330
75
100
AcDbEntity
  8
EBENE_1
100
AcDbMText
 10
393.160738319
 20
33.5924424874
 30
0.0
 40
3.7041666667
 41
0.0
 71
     1
 72
     1
  1
mm
  7
SLDTEXTSTYLE0
 73
     1
 44
1.0
  0
ENDBLK
  5
77
330
75
100
AcDbEntity
  8
0
100
AcDbBlockEnd
  0
BLOCK
  5
8D
330
8C
100
AcDbEntity
  8
0
100
AcDbBlockBegin
  2
SW_BLOCK_DIMENSION_0
 70
     0
 10
0.0
 20
0.0
 30
0.0
  3
SW_BLOCK_DIMENSION_0
  1

  0
INSERT
  5
94
330
8C
100
AcDbEntity
  8
EBENE_1
 62
     0
100
AcDbBlockReference
  2
_ORIGIN
 10
-1.5805038061
 20
2.3665509652
 30
0.0
 41
0.9483022837
 42
0.9483022837
 50
0.0
  0
LINE
  5
95
330
8C
100
AcDbEntity
  8
EBENE_1
 62
     0
100
AcDbLine
 10
-6.5262660664
 20
2.3665509652
 30
0.0
 11
0.0
 21
2.3665509652
 31
0.0
  0
MTEXT
  5
97
330
8C
100
AcDbEntity
  8
EBENE_1
 62
     0
100
AcDbMText
 10
0.0
 20
4.0927900738
 30
0.0
 40
3.175
 41
0.0
 71
     1
 72
     1
  1
0
  7
SLDTEXTSTYLE0
 73
     1
 44
1.0
  0
ENDBLK
  5
8E
330
8C
100
AcDbEntity
  8
0
100
AcDbBlockEnd
  0
BLOCK
  5
90
330
8F
100
AcDbEntity
  8
0
100
AcDbBlockBegin
  2
_ORIGIN
 70
     0
 10
0.0
 20
0.0
 30
0.0
  3
_ORIGIN
  1

  0
CIRCLE
  5
92
330
8F
100
AcDbEntity
  8
0
  6
ByBlock
 62
     0
370
    -2
100
AcDbCircle
 10
0.0
 20
0.0
 30
0.0
 40
0.5
  0
LINE
  5
93
330
8F
100
AcDbEntity
  8
0
  6
ByBlock
 62
     0
370
    -2
100
AcDbLine
 10
0.0
 20
0.0
 30
0.0
 11
-1.0
 21
0.0
 31
0.0
  0
ENDBLK
  5
91
330
8F
100
AcDbEntity
  8
0
100
AcDbBlockEnd
  0
BLOCK
  5
9A
330
99
100
AcDbEntity
  8
0
100
AcDbBlockBegin
  2
SW_BLOCK_DIMENSION_1
 70
     0
 10
0.0
 20
0.0
 30
0.0
  3
SW_BLOCK_DIMENSION_1
  1

  0
SOLID
  5
9C
330
99
100
AcDbEntity
  8
EBENE_1
 62
     0
100
AcDbTrace
 10
-1.5805038061
 20
2.3665509652
 30
0.0
 11
-2.0546549479
 21
-0.7154314566
 31
0.0
 12
-1.1063526643
 22
-0.7154314566
 32
0.0
 13
-1.1063526643
 23
-0.7154314566
 33
0.0
  0
LINE
  5
9D
330
99
100
AcDbEntity
  8
EBENE_1
 62
     0
100
AcDbLine
 10
-10.3062660664
 20
2.3665509652
 30
0.0
 11
0.0
 21
2.3665509652
 31
0.0
  0
LINE
  5
9E
330
99
100
AcDbEntity
  8
EBENE_1
 62
     0
100
AcDbLine
 10
-1.5805038061
 20
-7.6334490348
 30
0.0
 11
-1.5805038061
 21
2.3665509652
 31
0.0
  0
MTEXT
  5
9F
330
99
100
AcDbEntity
  8
EBENE_1
 62
     0
100
AcDbMText
 10
0.0
 20
4.0927900738
 30
0.0
 40
3.175
 41
0.0
 71
     1
 72
     1
  1
10
  7
SLDTEXTSTYLE0
 73
     1
 44
1.0
  0
ENDBLK
  5
9B
330
99
100
AcDbEntity
  8
0
100
AcDbBlockEnd
  0
BLOCK
  5
A2
330
A1
100
AcDbEntity
  8
0
100
AcDbBlockBegin
  2
SW_BLOCK_DIMENSION_2
 70
     0
 10
0.0
 20
0.0
 30
0.0
  3
SW_BLOCK_DIMENSION_2
  1

  0
SOLID
  5
A4
330
A1
100
AcDbEntity
  8
EBENE_1
 62
     0
100
AcDbTrace
 10
-1.5805038061
 20
2.3665509652
 30
0.0
 11
-2.0546549479
 21
-0.7154314566
 31
0.0
 12
-1.1063526643
 22
-0.7154314566
 32
0.0
 13
-1.1063526643
 23
-0.7154314566
 33
0.0
  0
LINE
  5
A5
330
A1
100
AcDbEntity
  8
EBENE_1
 62
     0
100
AcDbLine
 10
-10.3062660664
 20
2.3665509652
 30
0.0
 11
0.0
 21
2.3665509652
 31
0.0
  0
LINE
  5
A6
330
A1
100
AcDbEntity
  8
EBENE_1
 62
     0
100
AcDbLine
 10
-1.5805038061
 20
-7.6334490348
 30
0.0
 11
-1.5805038061
 21
2.3665509652
 31
0.0
  0
MTEXT
  5
A7
330
A1
100
AcDbEntity
  8
EBENE_1
 62
     0
100
AcDbMText
 10
0.0
 20
4.0927900738
 30
0.0
 40
3.175
 41
0.0
 71
     1
 72
     1
  1
20
  7
SLDTEXTSTYLE0
 73
     1
 44
1.0
  0
ENDBLK
  5
A3
330
A1
100
AcDbEntity
  8
0
100
AcDbBlockEnd
  0
BLOCK
  5
AA
330
A9
100
AcDbEntity
  8
0
100
AcDbBlockBegin
  2
SW_BLOCK_DIMENSION_3
 70
     0
 10
0.0
 20
0.0
 30
0.0
  3
SW_BLOCK_DIMENSION_3
  1

  0
SOLID
  5
AC
330
A9
100
AcDbEntity
  8
EBENE_1
 62
     0
100
AcDbTrace
 10
-1.5805038061
 20
2.3665509652
 30
0.0
 11
-2.0546549479
 21
-0.7154314566
 31
0.0
 12
-1.1063526643
 22
-0.7154314566
 32
0.0
 13
-1.1063526643
 23
-0.7154314566
 33
0.0
  0
LINE
  5
AD
330
A9
100
AcDbEntity
  8
EBENE_1
 62
     0
100
AcDbLine
 10
-10.3062660664
 20
2.3665509652
 30
0.0
 11
0.0
 21
2.3665509652
 31
0.0
  0
LINE
  5
AE
330
A9
100
AcDbEntity
  8
EBENE_1
 62
     0
100
AcDbLine
 10
-1.5805038061
 20
-7.6334490348
 30
0.0
 11
-1.5805038061
 21
2.3665509652
 31
0.0
  0
MTEXT
  5
AF
330
A9
100
AcDbEntity
  8
EBENE_1
 62
     0
100
AcDbMText
 10
0.0
 20
4.0927900738
 30
0.0
 40
3.175
 41
0.0
 71
     1
 72
     1
  1
30
  7
SLDTEXTSTYLE0
 73
     1
 44
1.0
  0
ENDBLK
  5
AB
330
A9
100
AcDbEntity
  8
0
100
AcDbBlockEnd
  0
BLOCK
  5
B2
330
B1
100
AcDbEntity
  8
0
100
AcDbBlockBegin
  2
SW_BLOCK_DIMENSION_4
 70
     0
 10
0.0
 20
0.0
 30
0.0
  3
SW_BLOCK_DIMENSION_4
  1

  0
SOLID
  5
B4
330
B1
100
AcDbEntity
  8
EBENE_1
 62
     0
100
AcDbTrace
 10
-1.5805038061
 20
2.3665509652
 30
0.0
 11
-2.0546549479
 21
-0.7154314566
 31
0.0
 12
-1.1063526643
 22
-0.7154314566
 32
0.0
 13
-1.1063526643
 23
-0.7154314566
 33
0.0
  0
LINE
  5
B5
330
B1
100
AcDbEntity
  8
EBENE_1
 62
     0
100
AcDbLine
 10
-10.3062660664
 20
2.3665509652
 30
0.0
 11
0.0
 21
2.3665509652
 31
0.0
  0
LINE
  5
B6
330
B1
100
AcDbEntity
  8
EBENE_1
 62
     0
100
AcDbLine
 10
-1.5805038061
 20
-7.6334490348
 30
0.0
 11
-1.5805038061
 21
2.3665509652
 31
0.0
  0
MTEXT
  5
B7
330
B1
100
AcDbEntity
  8
EBENE_1
 62
     0
100
AcDbMText
 10
0.0
 20
4.0927900738
 30
0.0
 40
3.175
 41
0.0
 71
     1
 72
     1
  1
40
  7
SLDTEXTSTYLE0
 73
     1
 44
1.0
  0
ENDBLK
  5
B3
330
B1
100
AcDbEntity
  8
0
100
AcDbBlockEnd
  0
BLOCK
  5
BA
330
B9
100
AcDbEntity
  8
0
100
AcDbBlockBegin
  2
SW_BLOCK_DIMENSION_5
 70
     0
 10
0.0
 20
0.0
 30
0.0
  3
SW_BLOCK_DIMENSION_5
  1

  0
SOLID
  5
BC
330
B9
100
AcDbEntity
  8
EBENE_1
 62
     0
100
AcDbTrace
 10
-1.5805038061
 20
2.3665509652
 30
0.0
 11
-2.0546549479
 21
-0.7154314566
 31
0.0
 12
-1.1063526643
 22
-0.7154314566
 32
0.0
 13
-1.1063526643
 23
-0.7154314566
 33
0.0
  0
LINE
  5
BD
330
B9
100
AcDbEntity
  8
EBENE_1
 62
     0
100
AcDbLine
 10
-10.3062660664
 20
2.3665509652
 30
0.0
 11
0.0
 21
2.3665509652
 31
0.0
  0
LINE
  5
BE
330
B9
100
AcDbEntity
  8
EBENE_1
 62
     0
100
AcDbLine
 10
-1.5805038061
 20
-7.6334490348
 30
0.0
 11
-1.5805038061
 21
2.3665509652
 31
0.0
  0
MTEXT
  5
BF
330
B9
100
AcDbEntity
  8
EBENE_1
 62
     0
100
AcDbMText
 10
0.0
 20
4.0927900738
 30
0.0
 40
3.175
 41
0.0
 71
     1
 72
     1
  1
50
  7
SLDTEXTSTYLE0
 73
     1
 44
1.0
  0
ENDBLK
  5
BB
330
B9
100
AcDbEntity
  8
0
100
AcDbBlockEnd
  0
BLOCK
  5
C2
330
C1
100
AcDbEntity
  8
0
100
AcDbBlockBegin
  2
SW_BLOCK_DIMENSION_6
 70
     0
 10
0.0
 20
0.0
 30
0.0
  3
SW_BLOCK_DIMENSION_6
  1

  0
SOLID
  5
C4
330
C1
100
AcDbEntity
  8
EBENE_1
 62
     0
100
AcDbTrace
 10
-1.5805038061
 20
2.3665509652
 30
0.0
 11
-2.0546549479
 21
-0.7154314566
 31
0.0
 12
-1.1063526643
 22
-0.7154314566
 32
0.0
 13
-1.1063526643
 23
-0.7154314566
 33
0.0
  0
LINE
  5
C5
330
C1
100
AcDbEntity
  8
EBENE_1
 62
     0
100
AcDbLine
 10
-10.3062660664
 20
2.3665509652
 30
0.0
 11
0.0
 21
2.3665509652
 31
0.0
  0
LINE
  5
C6
330
C1
100
AcDbEntity
  8
EBENE_1
 62
     0
100
AcDbLine
 10
-1.5805038061
 20
-7.6334490348
 30
0.0
 11
-1.5805038061
 21
2.3665509652
 31
0.0
  0
MTEXT
  5
C7
330
C1
100
AcDbEntity
  8
EBENE_1
 62
     0
100
AcDbMText
 10
0.0
 20
4.0927900738
 30
0.0
 40
3.175
 41
0.0
 71
     1
 72
     1
  1
60
  7
SLDTEXTSTYLE0
 73
     1
 44
1.0
  0
ENDBLK
  5
C3
330
C1
100
AcDbEntity
  8
0
100
AcDbBlockEnd
  0
BLOCK
  5
CA
330
C9
100
AcDbEntity
  8
0
100
AcDbBlockBegin
  2
SW_BLOCK_DIMENSION_7
 70
     0
 10
0.0
 20
0.0
 30
0.0
  3
SW_BLOCK_DIMENSION_7
  1

  0
SOLID
  5
CC
330
C9
100
AcDbEntity
  8
EBENE_1
 62
     0
100
AcDbTrace
 10
-1.5805038061
 20
2.3665509652
 30
0.0
 11
-2.0546549479
 21
-0.7154314566
 31
0.0
 12
-1.1063526643
 22
-0.7154314566
 32
0.0
 13
-1.1063526643
 23
-0.7154314566
 33
0.0
  0
LINE
  5
CD
330
C9
100
AcDbEntity
  8
EBENE_1
 62
     0
100
AcDbLine
 10
-10.3062660664
 20
2.3665509652
 30
0.0
 11
0.0
 21
2.3665509652
 31
0.0
  0
LINE
  5
CE
330
C9
100
AcDbEntity
  8
EBENE_1
 62
     0
100
AcDbLine
 10
-1.5805038061
 20
-7.6334490348
 30
0.0
 11
-1.5805038061
 21
2.3665509652
 31
0.0
  0
MTEXT
  5
CF
330
C9
100
AcDbEntity
  8
EBENE_1
 62
     0
100
AcDbMText
 10
0.0
 20
4.0927900738
 30
0.0
 40
3.175
 41
0.0
 71
     1
 72
     1
  1
70
  7
SLDTEXTSTYLE0
 73
     1
 44
1.0
  0
ENDBLK
  5
CB
330
C9
100
AcDbEntity
  8
0
100
AcDbBlockEnd
  0
BLOCK
  5
D2
330
D1
100
AcDbEntity
  8
0
100
AcDbBlockBegin
  2
SW_BLOCK_DIMENSION_8
 70
     0
 10
0.0
 20
0.0
 30
0.0
  3
SW_BLOCK_DIMENSION_8
  1

  0
SOLID
  5
D4
330
D1
100
AcDbEntity
  8
EBENE_1
 62
     0
100
AcDbTrace
 10
-1.5805038061
 20
2.3665509652
 30
0.0
 11
-2.0546549479
 21
-0.7154314566
 31
0.0
 12
-1.1063526643
 22
-0.7154314566
 32
0.0
 13
-1.1063526643
 23
-0.7154314566
 33
0.0
  0
LINE
  5
D5
330
D1
100
AcDbEntity
  8
EBENE_1
 62
     0
100
AcDbLine
 10
-10.3062660664
 20
2.3665509652
 30
0.0
 11
0.0
 21
2.3665509652
 31
0.0
  0
LINE
  5
D6
330
D1
100
AcDbEntity
  8
EBENE_1
 62
     0
100
AcDbLine
 10
-1.5805038061
 20
-7.6334490348
 30
0.0
 11
-1.5805038061
 21
2.3665509652
 31
0.0
  0
MTEXT
  5
D7
330
D1
100
AcDbEntity
  8
EBENE_1
 62
     0
100
AcDbMText
 10
0.0
 20
4.0927900738
 30
0.0
 40
3.175
 41
0.0
 71
     1
 72
     1
  1
80
  7
SLDTEXTSTYLE0
 73
     1
 44
1.0
  0
ENDBLK
  5
D3
330
D1
100
AcDbEntity
  8
0
100
AcDbBlockEnd
  0
BLOCK
  5
DA
330
D9
100
AcDbEntity
  8
0
100
AcDbBlockBegin
  2
SW_BLOCK_DIMENSION_9
 70
     0
 10
0.0
 20
0.0
 30
0.0
  3
SW_BLOCK_DIMENSION_9
  1

  0
SOLID
  5
DC
330
D9
100
AcDbEntity
  8
EBENE_1
 62
     0
100
AcDbTrace
 10
-1.5805038061
 20
2.3665509652
 30
0.0
 11
-2.0546549479
 21
-0.7154314566
 31
0.0
 12
-1.1063526643
 22
-0.7154314566
 32
0.0
 13
-1.1063526643
 23
-0.7154314566
 33
0.0
  0
LINE
  5
DD
330
D9
100
AcDbEntity
  8
EBENE_1
 62
     0
100
AcDbLine
 10
-10.3062660664
 20
2.3665509652
 30
0.0
 11
0.0
 21
2.3665509652
 31
0.0
  0
LINE
  5
DE
330
D9
100
AcDbEntity
  8
EBENE_1
 62
     0
100
AcDbLine
 10
-1.5805038061
 20
-7.6334490348
 30
0.0
 11
-1.5805038061
 21
2.3665509652
 31
0.0
  0
MTEXT
  5
DF
330
D9
100
AcDbEntity
  8
EBENE_1
 62
     0
100
AcDbMText
 10
0.0
 20
4.0927900738
 30
0.0
 40
3.175
 41
0.0
 71
     1
 72
     1
  1
90
  7
SLDTEXTSTYLE0
 73
     1
 44
1.0
  0
ENDBLK
  5
DB
330
D9
100
AcDbEntity
  8
0
100
AcDbBlockEnd
  0
BLOCK
  5
E2
330
E1
100
AcDbEntity
  8
0
100
AcDbBlockBegin
  2
SW_BLOCK_DIMENSION_10
 70
     0
 10
0.0
 20
0.0
 30
0.0
  3
SW_BLOCK_DIMENSION_10
  1

  0
SOLID
  5
E4
330
E1
100
AcDbEntity
  8
EBENE_1
 62
     0
100
AcDbTrace
 10
-1.5805038061
 20
2.3665509652
 30
0.0
 11
-2.0546549479
 21
-0.7154314566
 31
0.0
 12
-1.1063526643
 22
-0.7154314566
 32
0.0
 13
-1.1063526643
 23
-0.7154314566
 33
0.0
  0
LINE
  5
E5
330
E1
100
AcDbEntity
  8
EBENE_1
 62
     0
100
AcDbLine
 10
-10.3062660664
 20
2.3665509652
 30
0.0
 11
0.0
 21
2.3665509652
 31
0.0
  0
LINE
  5
E6
330
E1
100
AcDbEntity
  8
EBENE_1
 62
     0
100
AcDbLine
 10
-1.5805038061
 20
-7.6334490348
 30
0.0
 11
-1.5805038061
 21
2.3665509652
 31
0.0
  0
MTEXT
  5
E7
330
E1
100
AcDbEntity
  8
EBENE_1
 62
     0
100
AcDbMText
 10
0.0
 20
4.0927900738
 30
0.0
 40
3.175
 41
0.0
 71
     1
 72
     1
  1
100
  7
SLDTEXTSTYLE0
 73
     1
 44
1.0
  0
ENDBLK
  5
E3
330
E1
100
AcDbEntity
  8
0
100
AcDbBlockEnd
  0
BLOCK
  5
EA
330
E9
100
AcDbEntity
  8
0
100
AcDbBlockBegin
  2
SW_BLOCK_DIMENSION_11
 70
     0
 10
0.0
 20
0.0
 30
0.0
  3
SW_BLOCK_DIMENSION_11
  1

  0
SOLID
  5
EC
330
E9
100
AcDbEntity
  8
EBENE_1
 62
     0
100
AcDbTrace
 10
-1.5805038061
 20
2.3665509652
 30
0.0
 11
-2.0546549479
 21
-0.7154314566
 31
0.0
 12
-1.1063526643
 22
-0.7154314566
 32
0.0
 13
-1.1063526643
 23
-0.7154314566
 33
0.0
  0
LINE
  5
ED
330
E9
100
AcDbEntity
  8
EBENE_1
 62
     0
100
AcDbLine
 10
-10.3062660664
 20
2.3665509652
 30
0.0
 11
0.0
 21
2.3665509652
 31
0.0
  0
LINE
  5
EE
330
E9
100
AcDbEntity
  8
EBENE_1
 62
     0
100
AcDbLine
 10
-1.5805038061
 20
-7.6334490348
 30
0.0
 11
-1.5805038061
 21
2.3665509652
 31
0.0
  0
MTEXT
  5
EF
330
E9
100
AcDbEntity
  8
EBENE_1
 62
     0
100
AcDbMText
 10
0.0
 20
4.0927900738
 30
0.0
 40
3.175
 41
0.0
 71
     1
 72
     1
  1
110
  7
SLDTEXTSTYLE0
 73
     1
 44
1.0
  0
ENDBLK
  5
EB
330
E9
100
AcDbEntity
  8
0
100
AcDbBlockEnd
  0
BLOCK
  5
F2
330
F1
100
AcDbEntity
  8
0
100
AcDbBlockBegin
  2
SW_BLOCK_DIMENSION_12
 70
     0
 10
0.0
 20
0.0
 30
0.0
  3
SW_BLOCK_DIMENSION_12
  1

  0
SOLID
  5
F4
330
F1
100
AcDbEntity
  8
EBENE_1
 62
     0
100
AcDbTrace
 10
-1.5805038061
 20
2.3665509652
 30
0.0
 11
-2.0546549479
 21
-0.7154314566
 31
0.0
 12
-1.1063526643
 22
-0.7154314566
 32
0.0
 13
-1.1063526643
 23
-0.7154314566
 33
0.0
  0
LINE
  5
F5
330
F1
100
AcDbEntity
  8
EBENE_1
 62
     0
100
AcDbLine
 10
-10.3062660664
 20
2.3665509652
 30
0.0
 11
0.0
 21
2.3665509652
 31
0.0
  0
LINE
  5
F6
330
F1
100
AcDbEntity
  8
EBENE_1
 62
     0
100
AcDbLine
 10
-1.5805038061
 20
-7.6334490348
 30
0.0
 11
-1.5805038061
 21
2.3665509652
 31
0.0
  0
MTEXT
  5
F7
330
F1
100
AcDbEntity
  8
EBENE_1
 62
     0
100
AcDbMText
 10
0.0
 20
4.0927900738
 30
0.0
 40
3.175
 41
0.0
 71
     1
 72
     1
  1
120
  7
SLDTEXTSTYLE0
 73
     1
 44
1.0
  0
ENDBLK
  5
F3
330
F1
100
AcDbEntity
  8
0
100
AcDbBlockEnd
  0
BLOCK
  5
FA
330
F9
100
AcDbEntity
  8
0
100
AcDbBlockBegin
  2
SW_BLOCK_DIMENSION_13
 70
     0
 10
0.0
 20
0.0
 30
0.0
  3
SW_BLOCK_DIMENSION_13
  1

  0
SOLID
  5
FC
330
F9
100
AcDbEntity
  8
EBENE_1
 62
     0
100
AcDbTrace
 10
-1.5805038061
 20
2.3665509652
 30
0.0
 11
-2.0546549479
 21
-0.7154314566
 31
0.0
 12
-1.1063526643
 22
-0.7154314566
 32
0.0
 13
-1.1063526643
 23
-0.7154314566
 33
0.0
  0
LINE
  5
FD
330
F9
100
AcDbEntity
  8
EBENE_1
 62
     0
100
AcDbLine
 10
-10.3062660664
 20
2.3665509652
 30
0.0
 11
0.0
 21
2.3665509652
 31
0.0
  0
LINE
  5
FE
330
F9
100
AcDbEntity
  8
EBENE_1
 62
     0
100
AcDbLine
 10
-1.5805038061
 20
-7.6334490348
 30
0.0
 11
-1.5805038061
 21
2.3665509652
 31
0.0
  0
MTEXT
  5
FF
330
F9
100
AcDbEntity
  8
EBENE_1
 62
     0
100
AcDbMText
 10
0.0
 20
4.0927900738
 30
0.0
 40
3.175
 41
0.0
 71
     1
 72
     1
  1
130
  7
SLDTEXTSTYLE0
 73
     1
 44
1.0
  0
ENDBLK
  5
FB
330
F9
100
AcDbEntity
  8
0
100
AcDbBlockEnd
  0
BLOCK
  5
102
330
101
100
AcDbEntity
  8
0
100
AcDbBlockBegin
  2
SW_BLOCK_DIMENSION_14
 70
     0
 10
0.0
 20
0.0
 30
0.0
  3
SW_BLOCK_DIMENSION_14
  1

  0
INSERT
  5
104
330
101
100
AcDbEntity
  8
EBENE_1
 62
     0
100
AcDbBlockReference
  2
_ORIGIN
 10
16.3971707594
 20
5.1887726877
 30
0.0
 41
0.9483022837
 42
0.9483022837
 50
0.0
  0
LINE
  5
105
330
101
100
AcDbEntity
  8
EBENE_1
 62
     0
100
AcDbLine
 10
3.2925925916
 20
9.671990294
 30
0.0
 11
2.2342592711
 21
9.671990294
 31
0.0
  0
LINE
  5
106
330
101
100
AcDbEntity
  8
EBENE_1
 62
     0
100
AcDbLine
 10
2.2342592711
 20
9.671990294
 30
0.0
 11
2.2342592711
 21
4.9388883635
 31
0.0
  0
LINE
  5
107
330
101
100
AcDbEntity
  8
EBENE_1
 62
     0
100
AcDbLine
 10
2.2342592711
 20
4.9388883635
 30
0.0
 11
3.2925925916
 21
4.9388883635
 31
0.0
  0
LINE
  5
108
330
101
100
AcDbEntity
  8
EBENE_1
 62
     0
100
AcDbLine
 10
11.5240741288
 20
9.671990294
 30
0.0
 11
12.5824074494
 21
9.671990294
 31
0.0
  0
LINE
  5
109
330
101
100
AcDbEntity
  8
EBENE_1
 62
     0
100
AcDbLine
 10
12.5824074494
 20
9.671990294
 30
0.0
 11
12.5824074494
 21
4.9388883635
 31
0.0
  0
LINE
  5
10A
330
101
100
AcDbEntity
  8
EBENE_1
 62
     0
100
AcDbLine
 10
12.5824074494
 20
4.9388883635
 30
0.0
 11
11.5240741288
 21
4.9388883635
 31
0.0
  0
LINE
  5
10B
330
101
100
AcDbEntity
  8
EBENE_1
 62
     0
100
AcDbLine
 10
24.38463321
 20
5.1887726877
 30
0.0
 11
14.8166669533
 21
5.1887726877
 31
0.0
  0
MTEXT
  5
10C
330
101
100
AcDbEntity
  8
EBENE_1
 62
     0
100
AcDbMText
 10
1.190625
 20
4.0927900738
 30
0.0
 40
3.175
 41
0.0
 71
     1
 72
     1
  1

  7
SLDTEXTSTYLE0
 73
     1
 44
1.0
  0
MTEXT
  5
10D
330
101
100
AcDbEntity
  8
EBENE_1
 62
     0
100
AcDbMText
 10
3.2925925916
 20
9.0316784373
 30
0.0
 40
3.175
 41
0.0
 71
     1
 72
     1
  1
0,00
  7
SLDTEXTSTYLE0
 73
     1
 44
1.0
  0
MTEXT
  5
10E
330
101
100
AcDbEntity
  8
EBENE_1
 62
     0
100
AcDbMText
 10
6.2324074097
 20
4.0927898409
 30
0.0
 40
3.175
 41
0.0
 71
     1
 72
     1
  1
0
  7
SLDTEXTSTYLE0
 73
     1
 44
1.0
  0
MTEXT
  5
10F
330
101
100
AcDbEntity
  8
EBENE_1
 62
     0
100
AcDbMText
 10
14.8313658863
 20
4.0927900738
 30
0.0
 40
3.175
 41
0.0
 71
     1
 72
     1
  1

  7
SLDTEXTSTYLE0
 73
     1
 44
1.0
  0
ENDBLK
  5
103
330
101
100
AcDbEntity
  8
0
100
AcDbBlockEnd
  0
BLOCK
  5
112
330
111
100
AcDbEntity
  8
0
100
AcDbBlockBegin
  2
SW_BLOCK_DIMENSION_15
 70
     0
 10
0.0
 20
0.0
 30
0.0
  3
SW_BLOCK_DIMENSION_15
  1

  0
SOLID
  5
114
330
111
100
AcDbEntity
  8
EBENE_1
 62
     0
100
AcDbTrace
 10
16.3971707594
 20
5.1887726877
 30
0.0
 11
15.9230196175
 21
2.1067902658
 31
0.0
 12
16.8713219012
 22
2.1067902658
 32
0.0
 13
16.8713219012
 23
2.1067902658
 33
0.0
  0
LINE
  5
115
330
111
100
AcDbEntity
  8
EBENE_1
 62
     0
100
AcDbLine
 10
3.2925925916
 20
9.671990294
 30
0.0
 11
2.2342592711
 21
9.671990294
 31
0.0
  0
LINE
  5
116
330
111
100
AcDbEntity
  8
EBENE_1
 62
     0
100
AcDbLine
 10
2.2342592711
 20
9.671990294
 30
0.0
 11
2.2342592711
 21
4.9388883635
 31
0.0
  0
LINE
  5
117
330
111
100
AcDbEntity
  8
EBENE_1
 62
     0
100
AcDbLine
 10
2.2342592711
 20
4.9388883635
 30
0.0
 11
3.2925925916
 21
4.9388883635
 31
0.0
  0
LINE
  5
118
330
111
100
AcDbEntity
  8
EBENE_1
 62
     0
100
AcDbLine
 10
11.5240741288
 20
9.671990294
 30
0.0
 11
12.5824074494
 21
9.671990294
 31
0.0
  0
LINE
  5
119
330
111
100
AcDbEntity
  8
EBENE_1
 62
     0
100
AcDbLine
 10
12.5824074494
 20
9.671990294
 30
0.0
 11
12.5824074494
 21
4.9388883635
 31
0.0
  0
LINE
  5
11A
330
111
100
AcDbEntity
  8
EBENE_1
 62
     0
100
AcDbLine
 10
12.5824074494
 20
4.9388883635
 30
0.0
 11
11.5240741288
 21
4.9388883635
 31
0.0
  0
LINE
  5
11B
330
111
100
AcDbEntity
  8
EBENE_1
 62
     0
100
AcDbLine
 10
23.60463321
 20
5.1887726877
 30
0.0
 11
14.8166669533
 21
5.1887726877
 31
0.0
  0
LINE
  5
11C
330
111
100
AcDbEntity
  8
EBENE_1
 62
     0
100
AcDbLine
 10
16.3971707594
 20
-20.2112273123
 30
0.0
 11
16.3971707594
 21
5.1887726877
 31
0.0
  0
MTEXT
  5
11D
330
111
100
AcDbEntity
  8
EBENE_1
 62
     0
100
AcDbMText
 10
1.190625
 20
4.0927900738
 30
0.0
 40
3.175
 41
0.0
 71
     1
 72
     1
  1

  7
SLDTEXTSTYLE0
 73
     1
 44
1.0
  0
MTEXT
  5
11E
330
111
100
AcDbEntity
  8
EBENE_1
 62
     0
100
AcDbMText
 10
3.2925925916
 20
9.0316784373
 30
0.0
 40
3.175
 41
0.0
 71
     1
 72
     1
  1
1,00
  7
SLDTEXTSTYLE0
 73
     1
 44
1.0
  0
MTEXT
  5
11F
330
111
100
AcDbEntity
  8
EBENE_1
 62
     0
100
AcDbMText
 10
2.1166665247
 20
4.0927898409
 30
0.0
 40
3.175
 41
0.0
 71
     1
 72
     1
  1
25,40
  7
SLDTEXTSTYLE0
 73
     1
 44
1.0
  0
MTEXT
  5
120
330
111
100
AcDbEntity
  8
EBENE_1
 62
     0
100
AcDbMText
 10
14.8313658863
 20
4.0927900738
 30
0.0
 40
3.175
 41
0.0
 71
     1
 72
     1
  1

  7
SLDTEXTSTYLE0
 73
     1
 44
1.0
  0
ENDBLK
  5
113
330
111
100
AcDbEntity
  8
0
100
AcDbBlockEnd
  0
BLOCK
  5
123
330
122
100
AcDbEntity
  8
0
100
AcDbBlockBegin
  2
SW_BLOCK_DIMENSION_16
 70
     0
 10
0.0
 20
0.0
 30
0.0
  3
SW_BLOCK_DIMENSION_16
  1

  0
SOLID
  5
125
330
122
100
AcDbEntity
  8
EBENE_1
 62
     0
100
AcDbTrace
 10
16.3971707594
 20
5.1887726877
 30
0.0
 11
15.9230196175
 21
2.1067902658
 31
0.0
 12
16.8713219012
 22
2.1067902658
 32
0.0
 13
16.8713219012
 23
2.1067902658
 33
0.0
  0
LINE
  5
126
330
122
100
AcDbEntity
  8
EBENE_1
 62
     0
100
AcDbLine
 10
3.2925925916
 20
9.671990294
 30
0.0
 11
2.2342592711
 21
9.671990294
 31
0.0
  0
LINE
  5
127
330
122
100
AcDbEntity
  8
EBENE_1
 62
     0
100
AcDbLine
 10
2.2342592711
 20
9.671990294
 30
0.0
 11
2.2342592711
 21
4.9388883635
 31
0.0
  0
LINE
  5
128
330
122
100
AcDbEntity
  8
EBENE_1
 62
     0
100
AcDbLine
 10
2.2342592711
 20
4.9388883635
 30
0.0
 11
3.2925925916
 21
4.9388883635
 31
0.0
  0
LINE
  5
129
330
122
100
AcDbEntity
  8
EBENE_1
 62
     0
100
AcDbLine
 10
11.5240741288
 20
9.671990294
 30
0.0
 11
12.5824074494
 21
9.671990294
 31
0.0
  0
LINE
  5
12A
330
122
100
AcDbEntity
  8
EBENE_1
 62
     0
100
AcDbLine
 10
12.5824074494
 20
9.671990294
 30
0.0
 11
12.5824074494
 21
4.9388883635
 31
0.0
  0
LINE
  5
12B
330
122
100
AcDbEntity
  8
EBENE_1
 62
     0
100
AcDbLine
 10
12.5824074494
 20
4.9388883635
 30
0.0
 11
11.5240741288
 21
4.9388883635
 31
0.0
  0
LINE
  5
12C
330
122
100
AcDbEntity
  8
EBENE_1
 62
     0
100
AcDbLine
 10
23.60463321
 20
5.1887726877
 30
0.0
 11
14.8166669533
 21
5.1887726877
 31
0.0
  0
LINE
  5
12D
330
122
100
AcDbEntity
  8
EBENE_1
 62
     0
100
AcDbLine
 10
16.3971707594
 20
-20.2112273123
 30
0.0
 11
16.3971707594
 21
5.1887726877
 31
0.0
  0
MTEXT
  5
12E
330
122
100
AcDbEntity
  8
EBENE_1
 62
     0
100
AcDbMText
 10
1.190625
 20
4.0927900738
 30
0.0
 40
3.175
 41
0.0
 71
     1
 72
     1
  1

  7
SLDTEXTSTYLE0
 73
     1
 44
1.0
  0
MTEXT
  5
12F
330
122
100
AcDbEntity
  8
EBENE_1
 62
     0
100
AcDbMText
 10
3.2925925916
 20
9.0316784373
 30
0.0
 40
3.175
 41
0.0
 71
     1
 72
     1
  1
2,00
  7
SLDTEXTSTYLE0
 73
     1
 44
1.0
  0
MTEXT
  5
130
330
122
100
AcDbEntity
  8
EBENE_1
 62
     0
100
AcDbMText
 10
2.1166665247
 20
4.0927898409
 30
0.0
 40
3.175
 41
0.0
 71
     1
 72
     1
  1
50,80
  7
SLDTEXTSTYLE0
 73
     1
 44
1.0
  0
MTEXT
  5
131
330
122
100
AcDbEntity
  8
EBENE_1
 62
     0
100
AcDbMText
 10
14.8313658863
 20
4.0927900738
 30
0.0
 40
3.175
 41
0.0
 71
     1
 72
     1
  1

  7
SLDTEXTSTYLE0
 73
     1
 44
1.0
  0
ENDBLK
  5
124
330
122
100
AcDbEntity
  8
0
100
AcDbBlockEnd
  0
BLOCK
  5
134
330
133
100
AcDbEntity
  8
0
100
AcDbBlockBegin
  2
SW_BLOCK_DIMENSION_17
 70
     0
 10
0.0
 20
0.0
 30
0.0
  3
SW_BLOCK_DIMENSION_17
  1

  0
SOLID
  5
136
330
133
100
AcDbEntity
  8
EBENE_1
 62
     0
100
AcDbTrace
 10
16.3971707594
 20
5.1887726877
 30
0.0
 11
15.9230196175
 21
2.1067902658
 31
0.0
 12
16.8713219012
 22
2.1067902658
 32
0.0
 13
16.8713219012
 23
2.1067902658
 33
0.0
  0
LINE
  5
137
330
133
100
AcDbEntity
  8
EBENE_1
 62
     0
100
AcDbLine
 10
3.2925925916
 20
9.671990294
 30
0.0
 11
2.2342592711
 21
9.671990294
 31
0.0
  0
LINE
  5
138
330
133
100
AcDbEntity
  8
EBENE_1
 62
     0
100
AcDbLine
 10
2.2342592711
 20
9.671990294
 30
0.0
 11
2.2342592711
 21
4.9388883635
 31
0.0
  0
LINE
  5
139
330
133
100
AcDbEntity
  8
EBENE_1
 62
     0
100
AcDbLine
 10
2.2342592711
 20
4.9388883635
 30
0.0
 11
3.2925925916
 21
4.9388883635
 31
0.0
  0
LINE
  5
13A
330
133
100
AcDbEntity
  8
EBENE_1
 62
     0
100
AcDbLine
 10
11.5240741288
 20
9.671990294
 30
0.0
 11
12.5824074494
 21
9.671990294
 31
0.0
  0
LINE
  5
13B
330
133
100
AcDbEntity
  8
EBENE_1
 62
     0
100
AcDbLine
 10
12.5824074494
 20
9.671990294
 30
0.0
 11
12.5824074494
 21
4.9388883635
 31
0.0
  0
LINE
  5
13C
330
133
100
AcDbEntity
  8
EBENE_1
 62
     0
100
AcDbLine
 10
12.5824074494
 20
4.9388883635
 30
0.0
 11
11.5240741288
 21
4.9388883635
 31
0.0
  0
LINE
  5
13D
330
133
100
AcDbEntity
  8
EBENE_1
 62
     0
100
AcDbLine
 10
23.60463321
 20
5.1887726877
 30
0.0
 11
14.8166669533
 21
5.1887726877
 31
0.0
  0
LINE
  5
13E
330
133
100
AcDbEntity
  8
EBENE_1
 62
     0
100
AcDbLine
 10
16.3971707594
 20
-20.2112273123
 30
0.0
 11
16.3971707594
 21
5.1887726877
 31
0.0
  0
MTEXT
  5
13F
330
133
100
AcDbEntity
  8
EBENE_1
 62
     0
100
AcDbMText
 10
1.190625
 20
4.0927900738
 30
0.0
 40
3.175
 41
0.0
 71
     1
 72
     1
  1

  7
SLDTEXTSTYLE0
 73
     1
 44
1.0
  0
MTEXT
  5
140
330
133
100
AcDbEntity
  8
EBENE_1
 62
     0
100
AcDbMText
 10
3.2925925916
 20
9.0316784373
 30
0.0
 40
3.175
 41
0.0
 71
     1
 72
     1
  1
3,00
  7
SLDTEXTSTYLE0
 73
     1
 44
1.0
  0
MTEXT
  5
141
330
133
100
AcDbEntity
  8
EBENE_1
 62
     0
100
AcDbMText
 10
2.1166665247
 20
4.0927898409
 30
0.0
 40
3.175
 41
0.0
 71
     1
 72
     1
  1
76,20
  7
SLDTEXTSTYLE0
 73
     1
 44
1.0
  0
MTEXT
  5
142
330
133
100
AcDbEntity
  8
EBENE_1
 62
     0
100
AcDbMText
 10
14.8313658863
 20
4.0927900738
 30
0.0
 40
3.175
 41
0.0
 71
     1
 72
     1
  1

  7
SLDTEXTSTYLE0
 73
     1
 44
1.0
  0
ENDBLK
  5
135
330
133
100
AcDbEntity
  8
0
100
AcDbBlockEnd
  0
BLOCK
  5
145
330
144
100
AcDbEntity
  8
0
100
AcDbBlockBegin
  2
SW_BLOCK_DIMENSION_18
 70
     0
 10
0.0
 20
0.0
 30
0.0
  3
SW_BLOCK_DIMENSION_18
  1

  0
SOLID
  5
147
330
144
100
AcDbEntity
  8
EBENE_1
 62
     0
100
AcDbTrace
 10
16.8675417449
 20
5.1887726877
 30
0.0
 11
16.3933906031
 21
2.1067902658
 31
0.0
 12
17.3416928867
 22
2.1067902658
 32
0.0
 13
17.3416928867
 23
2.1067902658
 33
0.0
  0
LINE
  5
148
330
144
100
AcDbEntity
  8
EBENE_1
 62
     0
100
AcDbLine
 10
3.5277780844
 20
9.671990294
 30
0.0
 11
2.4694447638
 21
9.671990294
 31
0.0
  0
LINE
  5
149
330
144
100
AcDbEntity
  8
EBENE_1
 62
     0
100
AcDbLine
 10
2.4694447638
 20
9.671990294
 30
0.0
 11
2.4694447638
 21
4.9388883635
 31
0.0
  0
LINE
  5
14A
330
144
100
AcDbEntity
  8
EBENE_1
 62
     0
100
AcDbLine
 10
2.4694447638
 20
4.9388883635
 30
0.0
 11
3.5277780844
 21
4.9388883635
 31
0.0
  0
LINE
  5
14B
330
144
100
AcDbEntity
  8
EBENE_1
 62
     0
100
AcDbLine
 10
11.7592596216
 20
9.671990294
 30
0.0
 11
12.8175929422
 21
9.671990294
 31
0.0
  0
LINE
  5
14C
330
144
100
AcDbEntity
  8
EBENE_1
 62
     0
100
AcDbLine
 10
12.8175929422
 20
9.671990294
 30
0.0
 11
12.8175929422
 21
4.9388883635
 31
0.0
  0
LINE
  5
14D
330
144
100
AcDbEntity
  8
EBENE_1
 62
     0
100
AcDbLine
 10
12.8175929422
 20
4.9388883635
 30
0.0
 11
11.7592596216
 21
4.9388883635
 31
0.0
  0
LINE
  5
14E
330
144
100
AcDbEntity
  8
EBENE_1
 62
     0
100
AcDbLine
 10
24.0750041956
 20
5.1887726877
 30
0.0
 11
15.2870379388
 21
5.1887726877
 31
0.0
  0
LINE
  5
14F
330
144
100
AcDbEntity
  8
EBENE_1
 62
     0
100
AcDbLine
 10
16.8675417449
 20
-20.2112273123
 30
0.0
 11
16.8675417449
 21
5.1887726877
 31
0.0
  0
MTEXT
  5
150
330
144
100
AcDbEntity
  8
EBENE_1
 62
     0
100
AcDbMText
 10
1.190625
 20
4.0927900738
 30
0.0
 40
3.175
 41
0.0
 71
     1
 72
     1
  1

  7
SLDTEXTSTYLE0
 73
     1
 44
1.0
  0
MTEXT
  5
151
330
144
100
AcDbEntity
  8
EBENE_1
 62
     0
100
AcDbMText
 10
3.5277780844
 20
9.0316784373
 30
0.0
 40
3.175
 41
0.0
 71
     1
 72
     1
  1
4,00
  7
SLDTEXTSTYLE0
 73
     1
 44
1.0
  0
MTEXT
  5
152
330
144
100
AcDbEntity
  8
EBENE_1
 62
     0
100
AcDbMText
 10
1.1759259505
 20
4.0927898409
 30
0.0
 40
3.175
 41
0.0
 71
     1
 72
     1
  1
101,60
  7
SLDTEXTSTYLE0
 73
     1
 44
1.0
  0
MTEXT
  5
153
330
144
100
AcDbEntity
  8
EBENE_1
 62
     0
100
AcDbMText
 10
15.3017368719
 20
4.0927900738
 30
0.0
 40
3.175
 41
0.0
 71
     1
 72
     1
  1

  7
SLDTEXTSTYLE0
 73
     1
 44
1.0
  0
ENDBLK
  5
146
330
144
100
AcDbEntity
  8
0
100
AcDbBlockEnd
  0
BLOCK
  5
156
330
155
100
AcDbEntity
  8
0
100
AcDbBlockBegin
  2
SW_BLOCK_DIMENSION_19
 70
     0
 10
0.0
 20
0.0
 30
0.0
  3
SW_BLOCK_DIMENSION_19
  1

  0
SOLID
  5
158
330
155
100
AcDbEntity
  8
EBENE_1
 62
     0
100
AcDbTrace
 10
16.3971707594
 20
5.1887726877
 30
0.0
 11
15.9230196175
 21
2.1067902658
 31
0.0
 12
16.8713219012
 22
2.1067902658
 32
0.0
 13
16.8713219012
 23
2.1067902658
 33
0.0
  0
LINE
  5
159
330
155
100
AcDbEntity
  8
EBENE_1
 62
     0
100
AcDbLine
 10
3.2925925916
 20
9.671990294
 30
0.0
 11
2.2342592711
 21
9.671990294
 31
0.0
  0
LINE
  5
15A
330
155
100
AcDbEntity
  8
EBENE_1
 62
     0
100
AcDbLine
 10
2.2342592711
 20
9.671990294
 30
0.0
 11
2.2342592711
 21
4.9388883635
 31
0.0
  0
LINE
  5
15B
330
155
100
AcDbEntity
  8
EBENE_1
 62
     0
100
AcDbLine
 10
2.2342592711
 20
4.9388883635
 30
0.0
 11
3.2925925916
 21
4.9388883635
 31
0.0
  0
LINE
  5
15C
330
155
100
AcDbEntity
  8
EBENE_1
 62
     0
100
AcDbLine
 10
11.5240741288
 20
9.671990294
 30
0.0
 11
12.5824074494
 21
9.671990294
 31
0.0
  0
LINE
  5
15D
330
155
100
AcDbEntity
  8
EBENE_1
 62
     0
100
AcDbLine
 10
12.5824074494
 20
9.671990294
 30
0.0
 11
12.5824074494
 21
4.9388883635
 31
0.0
  0
LINE
  5
15E
330
155
100
AcDbEntity
  8
EBENE_1
 62
     0
100
AcDbLine
 10
12.5824074494
 20
4.9388883635
 30
0.0
 11
11.5240741288
 21
4.9388883635
 31
0.0
  0
LINE
  5
15F
330
155
100
AcDbEntity
  8
EBENE_1
 62
     0
100
AcDbLine
 10
23.60463321
 20
5.1887726877
 30
0.0
 11
14.8166669533
 21
5.1887726877
 31
0.0
  0
LINE
  5
160
330
155
100
AcDbEntity
  8
EBENE_1
 62
     0
100
AcDbLine
 10
16.3971707594
 20
-20.2112273123
 30
0.0
 11
16.3971707594
 21
5.1887726877
 31
0.0
  0
MTEXT
  5
161
330
155
100
AcDbEntity
  8
EBENE_1
 62
     0
100
AcDbMText
 10
1.190625
 20
4.0927900738
 30
0.0
 40
3.175
 41
0.0
 71
     1
 72
     1
  1

  7
SLDTEXTSTYLE0
 73
     1
 44
1.0
  0
MTEXT
  5
162
330
155
100
AcDbEntity
  8
EBENE_1
 62
     0
100
AcDbMText
 10
3.2925925916
 20
9.0316784373
 30
0.0
 40
3.175
 41
0.0
 71
     1
 72
     1
  1
5,00
  7
SLDTEXTSTYLE0
 73
     1
 44
1.0
  0
MTEXT
  5
163
330
155
100
AcDbEntity
  8
EBENE_1
 62
     0
100
AcDbMText
 10
3.8805556251
 20
4.0927898409
 30
0.0
 40
3.175
 41
0.0
 71
     1
 72
     1
  1
127
  7
SLDTEXTSTYLE0
 73
     1
 44
1.0
  0
MTEXT
  5
164
330
155
100
AcDbEntity
  8
EBENE_1
 62
     0
100
AcDbMText
 10
14.8313658863
 20
4.0927900738
 30
0.0
 40
3.175
 41
0.0
 71
     1
 72
     1
  1

  7
SLDTEXTSTYLE0
 73
     1
 44
1.0
  0
ENDBLK
  5
157
330
155
100
AcDbEntity
  8
0
100
AcDbBlockEnd
  0
BLOCK
  5
167
330
166
100
AcDbEntity
  8
0
100
AcDbBlockBegin
  2
SW_NOTE_0
 70
     0
 10
0.0
 20
0.0
 30
0.0
  3
SW_NOTE_0
  1

  0
MTEXT
  5
169
330
166
100
AcDbEntity
  8
EBENE_1
 62
     0
100
AcDbMText
 10
6.7138020833
 20
4.7749217527
 30
0.0
 40
3.7041666667
 41
0.0
 71
     2
 72
     1
  1
(Inch)
  7
SLDTEXTSTYLE0
 73
     1
 44
1.0
  0
MTEXT
  5
16A
330
166
100
AcDbEntity
  8
EBENE_1
 62
     0
100
AcDbMText
 10
6.7309508326
 20
-1.1639672404
 30
0.0
 40
3.7041666667
 41
0.0
 71
     2
 72
     1
  1
mm
  7
SLDTEXTSTYLE0
 73
     1
 44
1.0
  0
ENDBLK
  5
168
330
166
100
AcDbEntity
  8
0
100
AcDbBlockEnd
  0
BLOCK
  5
172
330
171
100
AcDbEntity
  8
0
100
AcDbBlockBegin
  2
SW_NOTE_1
 70
     0
 10
0.0
 20
0.0
 30
0.0
  3
SW_NOTE_1
  1

  0
MTEXT
  5
174
330
171
100
AcDbEntity
  8
0
  6
Continuous
 62
     0
370
     0
100
AcDbMText
 10
19.893359375
 20
4.0927900738
 30
0.0
 40
3.175
 41
0.0
 71
     2
 72
     1
  1
ABP-Beyerle GmbH
  7
SLDTEXTSTYLE0
 73
     1
 44
1.0
  0
MTEXT
  5
175
330
171
100
AcDbEntity
  8
0
  6
Continuous
 62
     0
370
     0
100
AcDbMText
 10
20.6558884293
 20
-0.1405432084
 30
0.0
 40
3.175
 41
0.0
 71
     2
 72
     1
  1
Im Schollengarten 24b, 76646 Bruchsal
  7
SLDTEXTSTYLE0
 73
     1
 44
1.0
  0
MTEXT
  5
176
330
171
100
AcDbEntity
  8
0
  6
Continuous
 62
     0
370
     0
100
AcDbMText
 10
20.7863491923
 20
-4.3738764906
 30
0.0
 40
3.175
 41
0.0
 71
     2
 72
     1
  1
Tel. +49 (0)7251-9127-0, Fax. +49 (0)7251-9127-29
  7
SLDTEXTSTYLE0
 73
     1
 44
1.0
  0
MTEXT
  5
177
330
171
100
AcDbEntity
  8
0
  6
Continuous
 62
     0
370
     0
100
AcDbMText
 10
20.8392552227
 20
-8.6072097727
 30
0.0
 40
3.175
 41
0.0
 71
     2
 72
     1
  1
info@abp-beyerle.de, www.abp-beyerle.de
  7
SLDTEXTSTYLE0
 73
     1
 44
1.0
  0
ENDBLK
  5
173
330
171
100
AcDbEntity
  8
0
100
AcDbBlockEnd
  0
ENDSEC
  0
SECTION
  2
ENTITIES
  0
INSERT
  5
16D
330
1F
100
AcDbEntity
  8
EBENE_1
100
AcDbBlockReference
  2
Block1
 10
19.561342692
 20
-6.9223244521
 30
0.0
  0
MTEXT
  5
16F
330
1F
100
AcDbEntity
  8
0
  6
Continuous
 62
     7
370
     0
100
AcDbMText
 10
402.5
 20
14.7189135832
 30
0.0
 40
6.35
 41
0.0
 71
     1
 72
     1
  1
1:1
  7
SLDTEXTSTYLE1
 73
     1
 44
1.0
  0
MTEXT
  5
170
330
1F
100
AcDbEntity
  8
0
  6
Continuous
 62
     7
370
     0
100
AcDbMText
 10
168.4090458961
 20
14.7189131175
 30
0.0
 40
6.35
 41
0.0
 71
     1
 72
     1
  1
USU65DS-1800EF
  7
SLDTEXTSTYLE1
 73
     1
 44
1.0
  0
INSERT
  5
178
330
1F
100
AcDbEntity
  8
0
  6
Continuous
 62
     7
370
     0
100
AcDbBlockReference
  2
SW_NOTE_1
 10
35.4202146835
 20
20.1681939512
 30
0.0
  0
LINE
  5
179
330
1F
100
AcDbEntity
  8
0
  6
Continuous
 62
     7
370
    15
100
AcDbLine
 10
-546.0866999441
 20
2122.7865852052
 30
0.0
 11
-548.0866993406
 21
2122.7865852052
 31
0.0
  0
LINE
  5
17A
330
1F
100
AcDbEntity
  8
0
  6
Continuous
 62
     7
370
    15
100
AcDbLine
 10
-548.0866993406
 20
2112.7865854287
 30
0.0
 11
-546.0866999441
 21
2112.7865854287
 31
0.0
  0
LINE
  5
17B
330
1F
100
AcDbEntity
  8
0
  6
Continuous
 62
     7
370
    15
100
AcDbLine
 10
1020.9133566729
 20
2112.7865854287
 30
0.0
 11
1022.9133309237
 21
2112.7865854287
 31
0.0
  0
LINE
  5
17C
330
1F
100
AcDbEntity
  8
0
  6
Continuous
 62
     7
370
    15
100
AcDbLine
 10
1022.9133309237
 20
2122.7865852052
 30
0.0
 11
1020.9133566729
 21
2122.7865852052
 31
0.0
  0
LINE
  5
17D
330
1F
100
AcDbEntity
  8
0
  6
Continuous
 62
     7
370
    15
100
AcDbLine
 10
1053.9199055544
 20
2125.2815853441
 30
0.0
 11
1052.7132691256
 21
2125.2815853441
 31
0.0
  0
LINE
  5
17E
330
1F
100
AcDbEntity
  8
0
  6
Continuous
 62
     7
370
    15
100
AcDbLine
 10
1052.7132691256
 20
2110.2915852898
 30
0.0
 11
1063.9898718707
 21
2110.2915852898
 31
0.0
  0
ARC
  5
17F
330
1F
100
AcDbEntity
  8
0
  6
Continuous
 62
     7
370
    15
100
AcDbCircle
 10
1052.7133004061
 20
2110.5915852857
 30
0.0
 40
0.2999999999999545
100
AcDbArc
 50
180.0
 51
270.0
  0
ARC
  5
180
330
1F
100
AcDbEntity
  8
0
  6
Continuous
 62
     7
370
    15
100
AcDbCircle
 10
1052.7133004061
 20
2124.9815852857
 30
0.0
 40
0.3000000000001819
100
AcDbArc
 50
90.0
 51
180.0
  0
ARC
  5
181
330
1F
100
AcDbEntity
  8
0
  6
Continuous
 62
     7
370
    15
100
AcDbCircle
 10
-577.8866995939
 20
2124.9815852857
 30
0.0
 40
0.3000000000001819
100
AcDbArc
 50
0.0
 51
90.0
  0
ARC
  5
182
330
1F
100
AcDbEntity
  8
0
  6
Continuous
 62
     7
370
    15
100
AcDbCircle
 10
-577.8866995939
 20
2110.5915852857
 30
0.0
 40
0.2999999999999545
100
AcDbArc
 50
270.0
 51
0.0
  0
LINE
  5
183
330
1F
100
AcDbEntity
  8
0
  6
Continuous
 62
     7
370
    15
100
AcDbLine
 10
-589.1632496008
 20
2110.2915852898
 30
0.0
 11
-577.8866990098
 21
2110.2915852898
 31
0.0
  0
LINE
  5
184
330
1F
100
AcDbEntity
  8
0
  6
Continuous
 62
     7
370
    15
100
AcDbLine
 10
-577.8866990098
 20
2125.2815853441
 30
0.0
 11
-579.0932758339
 21
2125.2815853441
 31
0.0
  0
LINE
  5
185
330
1F
100
AcDbEntity
  8
0
  6
Continuous
 62
     7
370
    15
100
AcDbLine
 10
1052.4133385531
 20
2123.736585454
 30
0.0
 11
1023.2132614962
 21
2123.736585454
 31
0.0
  0
LINE
  5
186
330
1F
100
AcDbEntity
  8
0
  6
Continuous
 62
     7
370
    15
100
AcDbLine
 10
1023.2132614962
 20
2111.8365861112
 30
0.0
 11
1052.4133385531
 21
2111.8365861112
 31
0.0
  0
ARC
  5
187
330
1F
100
AcDbEntity
  8
0
  6
Continuous
 62
     7
370
    15
100
AcDbCircle
 10
1023.2133004061
 20
2112.1365852857
 30
0.0
 40
0.3000000000001819
100
AcDbArc
 50
180.0
 51
270.0
  0
ARC
  5
188
330
1F
100
AcDbEntity
  8
0
  6
Continuous
 62
     7
370
    15
100
AcDbCircle
 10
1023.2133004061
 20
2123.4365852857
 30
0.0
 40
0.2999999999999545
100
AcDbArc
 50
90.0
 51
180.0
  0
ARC
  5
189
330
1F
100
AcDbEntity
  8
0
  6
Continuous
 62
     7
370
    15
100
AcDbCircle
 10
-548.3866995939
 20
2123.4365852857
 30
0.0
 40
0.2999999999999545
100
AcDbArc
 50
0.0
 51
90.0
  0
ARC
  5
18A
330
1F
100
AcDbEntity
  8
0
  6
Continuous
 62
     7
370
    15
100
AcDbCircle
 10
-548.3866995939
 20
2112.1365852857
 30
0.0
 40
0.3000000000001819
100
AcDbArc
 50
270.0
 51
0.0
  0
LINE
  5
18B
330
1F
100
AcDbEntity
  8
0
  6
Continuous
 62
     7
370
    15
100
AcDbLine
 10
-577.586701382
 20
2111.8365861112
 30
0.0
 11
-548.3866988309
 21
2111.8365861112
 31
0.0
  0
LINE
  5
18C
330
1F
100
AcDbEntity
  8
0
  6
Continuous
 62
     7
370
    15
100
AcDbLine
 10
-548.3866988309
 20
2123.736585454
 30
0.0
 11
-577.586701382
 21
2123.736585454
 31
0.0
  0
LINE
  5
18D
330
1F
100
AcDbEntity
  8
0
  6
Continuous
 62
     7
370
    15
100
AcDbLine
 10
-546.0866999441
 20
2122.524084487
 30
0.0
 11
-541.5119093471
 21
2122.8671948993
 31
0.0
  0
ARC
  5
18E
330
1F
100
AcDbEntity
  8
0
  6
Continuous
 62
     7
370
    15
100
AcDbCircle
 10
-541.5866995939
 20
2123.8643938417
 30
0.0
 40
1.0
100
AcDbArc
 50
274.2891533288
 51
0.0
  0
LINE
  5
18F
330
1F
100
AcDbEntity
  8
0
  6
Continuous
 62
     7
370
    15
100
AcDbLine
 10
-540.5866999739
 20
2126.5087769934
 30
0.0
 11
-540.6026349031
 21
2126.6865850994
 31
0.0
  0
LINE
  5
190
330
1F
100
AcDbEntity
  8
0
  6
Continuous
 62
     7
370
    15
100
AcDbLine
 10
1016.3384617678
 20
2122.8671948993
 30
0.0
 11
1020.9133566729
 21
2122.524084487
 31
0.0
  0
LINE
  5
191
330
1F
100
AcDbEntity
  8
0
  6
Continuous
 62
     7
370
    15
100
AcDbLine
 10
1015.4292525164
 20
2126.6865850994
 30
0.0
 11
1015.4132784716
 21
2126.5087769934
 31
0.0
  0
ARC
  5
192
330
1F
100
AcDbEntity
  8
0
  6
Continuous
 62
     7
370
    15
100
AcDbCircle
 10
1016.4133004061
 20
2123.8643938417
 30
0.0
 40
0.999999999999949
100
AcDbArc
 50
180.0
 51
265.7108466712
  0
LINE
  5
193
330
1F
100
AcDbEntity
  8
0
  6
Continuous
 62
     7
370
    15
100
AcDbLine
 10
-392.1517639049
 20
2026.2476000571
 30
0.0
 11
-392.0907436498
 21
2026.1865872526
 31
0.0
  0
LINE
  5
194
330
1F
100
AcDbEntity
  8
0
  6
Continuous
 62
     7
370
    15
100
AcDbLine
 10
-389.0907524713
 20
2026.1865872526
 30
0.0
 11
-389.0297322162
 21
2026.2476000571
 31
0.0
  0
LINE
  5
195
330
1F
100
AcDbEntity
  8
0
  6
Continuous
 62
     7
370
    15
100
AcDbLine
 10
-537.1517588013
 20
2026.2476000571
 30
0.0
 11
-537.0907469281
 21
2026.1865872526
 31
0.0
  0
LINE
  5
196
330
1F
100
AcDbEntity
  8
0
  6
Continuous
 62
     7
370
    15
100
AcDbLine
 10
-534.090746902
 20
2026.1865872526
 30
0.0
 11
-534.0297349124
 21
2026.2476000571
 31
0.0
  0
LINE
  5
197
330
1F
100
AcDbEntity
  8
0
  6
Continuous
 62
     7
370
    15
100
AcDbLine
 10
242.8482116572
 20
2026.2476000571
 30
0.0
 11
242.9092468134
 21
2026.1865872526
 31
0.0
  0
LINE
  5
198
330
1F
100
AcDbEntity
  8
0
  6
Continuous
 62
     7
370
    15
100
AcDbLine
 10
245.9092677943
 20
2026.1865872526
 30
0.0
 11
245.9702433459
 21
2026.2476000571
 31
0.0
  0
LINE
  5
199
330
1F
100
AcDbEntity
  8
0
  6
Continuous
 62
     7
370
    15
100
AcDbLine
 10
97.8482307307
 20
2026.2476000571
 30
0.0
 11
97.9092658869
 21
2026.1865872526
 31
0.0
  0
LINE
  5
19A
330
1F
100
AcDbEntity
  8
0
  6
Continuous
 62
     7
370
    15
100
AcDbLine
 10
100.9092272631
 20
2026.1865872526
 30
0.0
 11
100.9702624194
 21
2026.2476000571
 31
0.0
  0
LINE
  5
19B
330
1F
100
AcDbEntity
  8
0
  6
Continuous
 62
     7
370
    15
100
AcDbLine
 10
-661.586692799
 20
2126.6865850994
 30
0.0
 11
-626.3301207312
 21
2126.6865850994
 31
0.0
  0
LINE
  5
19C
330
1F
100
AcDbEntity
  8
0
  6
Continuous
 62
     7
370
    15
100
AcDbLine
 10
-578.8432790526
 20
2126.6865850994
 30
0.0
 11
-480.7741178759
 21
2126.6865850994
 31
0.0
  0
LINE
  5
19D
330
1F
100
AcDbEntity
  8
0
  6
Continuous
 62
     7
370
    15
100
AcDbLine
 10
-445.4073740729
 20
2126.6865850994
 30
0.0
 11
154.2258800379
 21
2126.6865850994
 31
0.0
  0
LINE
  5
19E
330
1F
100
AcDbEntity
  8
0
  6
Continuous
 62
     7
370
    15
100
AcDbLine
 10
189.5925940386
 20
2126.6865850994
 30
0.0
 11
1053.6699236742
 21
2126.6865850994
 31
0.0
  0
LINE
  5
19F
330
1F
100
AcDbEntity
  8
0
  6
Continuous
 62
     7
370
    15
100
AcDbLine
 10
1101.1567057482
 20
2126.6865850994
 30
0.0
 11
1136.41332997
 21
2126.6865850994
 31
0.0
  0
LINE
  5
1A0
330
1F
100
AcDbEntity
  8
0
  6
Continuous
 62
     7
370
    15
100
AcDbLine
 10
1136.41332997
 20
2151.6865854719
 30
0.0
 11
1088.0786122195
 21
2151.6865854719
 31
0.0
  0
LINE
  5
1A1
330
1F
100
AcDbEntity
  8
0
  6
Continuous
 62
     7
370
    15
100
AcDbLine
 10
1066.7478979937
 20
2151.6865854719
 30
0.0
 11
185.6502832285
 21
2151.6865854719
 31
0.0
  0
LINE
  5
1A2
330
1F
100
AcDbEntity
  8
0
  6
Continuous
 62
     7
370
    15
100
AcDbLine
 10
158.1682504527
 20
2151.6865854719
 30
0.0
 11
-449.3497444876
 21
2151.6865854719
 31
0.0
  0
LINE
  5
1A3
330
1F
100
AcDbEntity
  8
0
  6
Continuous
 62
     7
370
    15
100
AcDbLine
 10
-476.8317474612
 20
2151.6865854719
 30
0.0
 11
-591.9213353284
 21
2151.6865854719
 31
0.0
  0
LINE
  5
1A4
330
1F
100
AcDbEntity
  8
0
  6
Continuous
 62
     7
370
    15
100
AcDbLine
 10
-613.2520644554
 20
2151.6865854719
 30
0.0
 11
-661.586692799
 21
2151.6865854719
 31
0.0
  0
LINE
  5
1A5
330
1F
100
AcDbEntity
  8
0
  6
Continuous
 62
     7
370
    15
100
AcDbLine
 10
-661.586692799
 20
2151.6865854719
 30
0.0
 11
-662.5866948255
 21
2150.686585308
 31
0.0
  0
LINE
  5
1A6
330
1F
100
AcDbEntity
  8
0
  6
Continuous
 62
     7
370
    15
100
AcDbLine
 10
-662.5866948255
 20
2127.6865852633
 30
0.0
 11
-661.586692799
 21
2126.6865850994
 31
0.0
  0
LINE
  5
1A7
330
1F
100
AcDbEntity
  8
0
  6
Continuous
 62
     7
370
    15
100
AcDbLine
 10
1136.41332997
 20
2126.6865850994
 30
0.0
 11
1137.4132574908
 21
2127.6865852633
 31
0.0
  0
LINE
  5
1A8
330
1F
100
AcDbEntity
  8
0
  6
Continuous
 62
     7
370
    15
100
AcDbLine
 10
1137.4132574908
 20
2150.686585308
 30
0.0
 11
1136.41332997
 21
2151.6865854719
 31
0.0
  0
ARC
  5
1A9
330
1F
100
AcDbEntity
  8
0
  6
Continuous
 62
     7
370
    15
100
AcDbCircle
 10
234.4392545114
 20
51.1865852857
 30
0.0
 40
1.500000000000057
100
AcDbArc
 50
270.0
 51
359.0
  0
ARC
  5
1AA
330
1F
100
AcDbEntity
  8
0
  6
Continuous
 62
     7
370
    15
100
AcDbCircle
 10
265.3873463008
 20
51.1865852857
 30
0.0
 40
1.500000000000057
100
AcDbArc
 50
181.0
 51
270.0
  0
LINE
  5
1AB
330
1F
100
AcDbEntity
  8
0
  6
Continuous
 62
     7
370
    15
100
AcDbLine
 10
235.9831274859
 20
53.6865833783
 30
0.0
 11
235.9390200488
 21
51.1603001141
 31
0.0
  0
LINE
  5
1AC
330
1F
100
AcDbEntity
  8
0
  6
Continuous
 62
     7
370
    15
100
AcDbLine
 10
263.8875783793
 20
51.1603001141
 30
0.0
 11
263.8434709422
 21
53.6865833783
 31
0.0
  0
LINE
  5
1AD
330
1F
100
AcDbEntity
  8
0
  6
Continuous
 62
     7
370
    15
100
AcDbLine
 10
-546.0866999441
 20
2115.8103998387
 30
0.0
 11
-546.0866999441
 21
2122.7865852052
 31
0.0
  0
LINE
  5
1AE
330
1F
100
AcDbEntity
  8
0
  6
Continuous
 62
     7
370
    15
100
AcDbLine
 10
-546.0866999441
 20
2112.7865854287
 30
0.0
 11
-546.0866999441
 21
2115.8103998387
 31
0.0
  0
LINE
  5
1AF
330
1F
100
AcDbEntity
  8
0
  6
Continuous
 62
     7
370
    15
100
AcDbLine
 10
1020.9133566729
 20
2117.7865843856
 30
0.0
 11
1020.9133566729
 21
2112.7865854287
 31
0.0
  0
LINE
  5
1B0
330
1F
100
AcDbEntity
  8
0
  6
Continuous
 62
     7
370
    15
100
AcDbLine
 10
1020.9133566729
 20
2122.7865852052
 30
0.0
 11
1020.9133566729
 21
2117.7865843856
 31
0.0
  0
LINE
  5
1B1
330
1F
100
AcDbEntity
  8
0
  6
Continuous
 62
     7
370
    15
100
AcDbLine
 10
1052.4133385531
 20
2124.1372087607
 30
0.0
 11
1052.4133385531
 21
2124.9815849224
 31
0.0
  0
LINE
  5
1B2
330
1F
100
AcDbEntity
  8
0
  6
Continuous
 62
     7
370
    15
100
AcDbLine
 10
1052.4133385531
 20
2110.5915847802
 30
0.0
 11
1052.4133385531
 21
2124.1372087607
 31
0.0
  0
LINE
  5
1B3
330
1F
100
AcDbEntity
  8
0
  6
Continuous
 62
     7
370
    15
100
AcDbLine
 10
-577.586701382
 20
2124.9815849224
 30
0.0
 11
-577.586701382
 21
2110.5915847802
 31
0.0
  0
LINE
  5
1B4
330
1F
100
AcDbEntity
  8
0
  6
Continuous
 62
     7
370
    15
100
AcDbLine
 10
1022.9133309237
 20
2119.2622258896
 30
0.0
 11
1022.9133309237
 21
2123.4365850323
 31
0.0
  0
LINE
  5
1B5
330
1F
100
AcDbEntity
  8
0
  6
Continuous
 62
     7
370
    15
100
AcDbLine
 10
1022.9133309237
 20
2112.1365856016
 30
0.0
 11
1022.9133309237
 21
2119.2622258896
 31
0.0
  0
LINE
  5
1B6
330
1F
100
AcDbEntity
  8
0
  6
Continuous
 62
     7
370
    15
100
AcDbLine
 10
-548.0866993406
 20
2123.4365850323
 30
0.0
 11
-548.0866993406
 21
2112.1365856016
 31
0.0
  0
CIRCLE
  5
1B7
330
1F
100
AcDbEntity
  8
0
  6
Continuous
 62
     7
370
    15
100
AcDbCircle
 10
-602.5866995939
 20
2130.1865852857
 30
0.0
 40
22.0
  0
CIRCLE
  5
1B8
330
1F
100
AcDbEntity
  8
0
  6
Continuous
 62
     7
370
    15
100
AcDbCircle
 10
-602.5866995939
 20
2130.1865852857
 30
0.0
 40
24.0
  0
CIRCLE
  5
1B9
330
1F
100
AcDbEntity
  8
0
  6
Continuous
 62
     7
370
    15
100
AcDbCircle
 10
-591.8366995939
 20
2130.1865852857
 30
0.0
 40
1.299999999999955
  0
CIRCLE
  5
1BA
330
1F
100
AcDbEntity
  8
0
  6
Continuous
 62
     7
370
    15
100
AcDbCircle
 10
-613.3366995939
 20
2130.1865852857
 30
0.0
 40
1.299999999999955
  0
CIRCLE
  5
1BB
330
1F
100
AcDbEntity
  8
0
  6
Continuous
 62
     7
370
    15
100
AcDbCircle
 10
-602.5866995939
 20
2119.4365852857
 30
0.0
 40
1.299999999999955
  0
CIRCLE
  5
1BC
330
1F
100
AcDbEntity
  8
0
  6
Continuous
 62
     7
370
    15
100
AcDbCircle
 10
-602.5866995939
 20
2140.9365852857
 30
0.0
 40
1.300000000000068
  0
CIRCLE
  5
1BD
330
1F
100
AcDbEntity
  8
0
  6
Continuous
 62
     7
370
    15
100
AcDbCircle
 10
1077.4133004061
 20
2130.1865852857
 30
0.0
 40
21.9999999999995
  0
CIRCLE
  5
1BE
330
1F
100
AcDbEntity
  8
0
  6
Continuous
 62
     7
370
    15
100
AcDbCircle
 10
1077.4133004061
 20
2130.1865852857
 30
0.0
 40
23.99999999999968
  0
CIRCLE
  5
1BF
330
1F
100
AcDbEntity
  8
0
  6
Continuous
 62
     7
370
    15
100
AcDbCircle
 10
1087.5670860127
 20
2126.6562683232
 30
0.0
 40
1.300000000000149
  0
CIRCLE
  5
1C0
330
1F
100
AcDbEntity
  8
0
  6
Continuous
 62
     7
370
    15
100
AcDbCircle
 10
1073.8829834437
 20
2120.0327996791
 30
0.0
 40
1.300000000000149
  0
CIRCLE
  5
1C1
330
1F
100
AcDbEntity
  8
0
  6
Continuous
 62
     7
370
    15
100
AcDbCircle
 10
1067.2595147995
 20
2133.7169022481
 30
0.0
 40
1.300000000000149
  0
CIRCLE
  5
1C2
330
1F
100
AcDbEntity
  8
0
  6
Continuous
 62
     7
370
    15
100
AcDbCircle
 10
1080.9436173686
 20
2140.3403708923
 30
0.0
 40
1.299999999999645
  0
LINE
  5
1C3
330
1F
100
AcDbEntity
  8
0
  6
Continuous
 62
     7
370
    15
100
AcDbLine
 10
-572.0867014118
 20
2123.736585454
 30
0.0
 11
-572.0867014118
 21
2126.6865850994
 31
0.0
  0
LINE
  5
1C4
330
1F
100
AcDbEntity
  8
0
  6
Continuous
 62
     7
370
    15
100
AcDbLine
 10
-575.5867010542
 20
2123.736585454
 30
0.0
 11
-575.5867010542
 21
2126.6865850994
 31
0.0
  0
LINE
  5
1C5
330
1F
100
AcDbEntity
  8
0
  6
Continuous
 62
     7
370
    15
100
AcDbLine
 10
-577.9867007025
 20
2125.2815853441
 30
0.0
 11
-577.9867007025
 21
2126.6865850994
 31
0.0
  0
LINE
  5
1C6
330
1F
100
AcDbEntity
  8
0
  6
Continuous
 62
     7
370
    15
100
AcDbLine
 10
-540.5866999739
 20
2125.1865848535
 30
0.0
 11
-540.5866999739
 21
2123.8643936449
 31
0.0
  0
LINE
  5
1C7
330
1F
100
AcDbEntity
  8
0
  6
Continuous
 62
     7
370
    15
100
AcDbLine
 10
-540.5866999739
 20
2126.5087769934
 30
0.0
 11
-540.5866999739
 21
2125.1865848535
 31
0.0
  0
LINE
  5
1C8
330
1F
100
AcDbEntity
  8
0
  6
Continuous
 62
     7
370
    15
100
AcDbLine
 10
1052.8132857195
 20
2126.6865850994
 30
0.0
 11
1052.8132857195
 21
2125.2815853441
 31
0.0
  0
LINE
  5
1C9
330
1F
100
AcDbEntity
  8
0
  6
Continuous
 62
     7
370
    15
100
AcDbLine
 10
1015.4132784716
 20
2123.8643936449
 30
0.0
 11
1015.4132784716
 21
2126.5087769934
 31
0.0
  0
LINE
  5
1CA
330
1F
100
AcDbEntity
  8
0
  6
Continuous
 62
     7
370
    15
100
AcDbLine
 10
-595.5907462724
 20
2103.6865841234
 30
0.0
 11
-595.5907462724
 21
53.6865833783
 31
0.0
  0
LINE
  5
1CB
330
1F
100
AcDbEntity
  8
0
  6
Continuous
 62
     7
370
    15
100
AcDbLine
 10
-595.5907462724
 20
53.6865833783
 30
0.0
 11
304.409259688
 21
53.6865833783
 31
0.0
  0
LINE
  5
1CC
330
1F
100
AcDbEntity
  8
0
  6
Continuous
 62
     7
370
    15
100
AcDbLine
 10
304.409259688
 20
2103.6865841234
 30
0.0
 11
199.7110785357
 21
2103.6865841234
 31
0.0
  0
LINE
  5
1CD
330
1F
100
AcDbEntity
  8
0
  6
Continuous
 62
     7
370
    15
100
AcDbLine
 10
144.1074551455
 20
2103.6865841234
 30
0.0
 11
-435.2889417299
 21
2103.6865841234
 31
0.0
  0
LINE
  5
1CE
330
1F
100
AcDbEntity
  8
0
  6
Continuous
 62
     7
370
    15
100
AcDbLine
 10
-490.8925539442
 20
2103.6865841234
 30
0.0
 11
-595.5907462724
 21
2103.6865841234
 31
0.0
  0
LINE
  5
1CF
330
1F
100
AcDbEntity
  8
0
  6
Continuous
 62
     7
370
    15
100
AcDbLine
 10
304.409259688
 20
53.6865833783
 30
0.0
 11
304.409259688
 21
2103.6865841234
 31
0.0
  0
ARC
  5
1D0
330
1F
100
AcDbEntity
  8
0
  6
Continuous
 62
     7
370
    15
100
AcDbCircle
 10
-463.0907469391
 20
2177.6865852857
 30
0.0
 40
28.94999999999977
100
AcDbArc
 50
298.3083127821
 51
241.6916872179
  0
ARC
  5
1D1
330
1F
100
AcDbEntity
  8
0
  6
Continuous
 62
     7
370
    15
100
AcDbCircle
 10
171.9092530609
 20
2177.6865852857
 30
0.0
 40
28.94999999999996
100
AcDbArc
 50
298.3083127821
 51
241.6916872179
  0
CIRCLE
  5
1D2
330
1F
100
AcDbEntity
  8
0
  6
Continuous
 62
     7
370
    15
100
AcDbCircle
 10
-463.0907469391
 20
2177.6865852857
 30
0.0
 40
12.99999999999998
  0
CIRCLE
  5
1D3
330
1F
100
AcDbEntity
  8
0
  6
Continuous
 62
     7
370
    15
100
AcDbCircle
 10
-469.8389366909
 20
2177.8429025085
 30
0.0
 40
1.249999999999986
  0
CIRCLE
  5
1D4
330
1F
100
AcDbEntity
  8
0
  6
Continuous
 62
     7
370
    15
100
AcDbCircle
 10
-463.2470641619
 20
2170.9383955339
 30
0.0
 40
1.250000000000032
  0
CIRCLE
  5
1D5
330
1F
100
AcDbEntity
  8
0
  6
Continuous
 62
     7
370
    15
100
AcDbCircle
 10
-462.9344297163
 20
2184.4347750374
 30
0.0
 40
1.249999999999929
  0
CIRCLE
  5
1D6
330
1F
100
AcDbEntity
  8
0
  6
Continuous
 62
     7
370
    15
100
AcDbCircle
 10
-456.3425571873
 20
2177.5302680628
 30
0.0
 40
1.249999999999986
  0
CIRCLE
  5
1D7
330
1F
100
AcDbEntity
  8
0
  6
Continuous
 62
     7
370
    15
100
AcDbCircle
 10
-463.0907469391
 20
2177.6865852857
 30
0.0
 40
14.99999999999997
  0
CIRCLE
  5
1D8
330
1F
100
AcDbEntity
  8
0
  6
Continuous
 62
     7
370
    15
100
AcDbCircle
 10
171.9092530609
 20
2177.6865852857
 30
0.0
 40
12.99999999999998
  0
CIRCLE
  5
1D9
330
1F
100
AcDbEntity
  8
0
  6
Continuous
 62
     7
370
    15
100
AcDbCircle
 10
172.0655702837
 20
2184.4347750374
 30
0.0
 40
1.250000000000071
  0
CIRCLE
  5
1DA
330
1F
100
AcDbEntity
  8
0
  6
Continuous
 62
     7
370
    15
100
AcDbCircle
 10
171.7529358381
 20
2170.9383955339
 30
0.0
 40
1.249999999999947
  0
CIRCLE
  5
1DB
330
1F
100
AcDbEntity
  8
0
  6
Continuous
 62
     7
370
    15
100
AcDbCircle
 10
178.6574428127
 20
2177.5302680628
 30
0.0
 40
1.250000000000071
  0
CIRCLE
  5
1DC
330
1F
100
AcDbEntity
  8
0
  6
Continuous
 62
     7
370
    15
100
AcDbCircle
 10
165.1610633091
 20
2177.8429025085
 30
0.0
 40
1.249999999999947
  0
CIRCLE
  5
1DD
330
1F
100
AcDbEntity
  8
0
  6
Continuous
 62
     7
370
    15
100
AcDbCircle
 10
171.9092530609
 20
2177.6865852857
 30
0.0
 40
15.00000000000003
  0
CIRCLE
  5
1DE
330
1F
100
AcDbEntity
  8
0
  6
Continuous
 62
     7
370
    15
100
AcDbCircle
 10
-390.5907469391
 20
2048.6865852857
 30
0.0
 40
15.00000000000007
  0
CIRCLE
  5
1DF
330
1F
100
AcDbEntity
  8
0
  6
Continuous
 62
     7
370
    15
100
AcDbCircle
 10
-390.5907469391
 20
2048.6865852857
 30
0.0
 40
13.00000000000008
  0
CIRCLE
  5
1E0
330
1F
100
AcDbEntity
  8
0
  6
Continuous
 62
     7
370
    15
100
AcDbCircle
 10
-384.4311886174
 20
2051.4474440798
 30
0.0
 40
1.249999999999879
  0
CIRCLE
  5
1E1
330
1F
100
AcDbEntity
  8
0
  6
Continuous
 62
     7
370
    15
100
AcDbCircle
 10
-393.3516057332
 20
2054.8461436074
 30
0.0
 40
1.249999999999879
  0
CIRCLE
  5
1E2
330
1F
100
AcDbEntity
  8
0
  6
Continuous
 62
     7
370
    15
100
AcDbCircle
 10
-396.7503052608
 20
2045.9257264915
 30
0.0
 40
1.249999999999972
  0
CIRCLE
  5
1E3
330
1F
100
AcDbEntity
  8
0
  6
Continuous
 62
     7
370
    15
100
AcDbCircle
 10
-387.829888145
 20
2042.5270269639
 30
0.0
 40
1.249999999999972
  0
CIRCLE
  5
1E4
330
1F
100
AcDbEntity
  8
0
  6
Continuous
 62
     7
370
    15
100
AcDbCircle
 10
-535.5907469391
 20
2048.6865852857
 30
0.0
 40
15.0
  0
CIRCLE
  5
1E5
330
1F
100
AcDbEntity
  8
0
  6
Continuous
 62
     7
370
    15
100
AcDbCircle
 10
-535.5907469391
 20
2048.6865852857
 30
0.0
 40
13.0
  0
CIRCLE
  5
1E6
330
1F
100
AcDbEntity
  8
0
  6
Continuous
 62
     7
370
    15
100
AcDbCircle
 10
-528.8407469391
 20
2048.6865852857
 30
0.0
 40
1.249999999999886
  0
CIRCLE
  5
1E7
330
1F
100
AcDbEntity
  8
0
  6
Continuous
 62
     7
370
    15
100
AcDbCircle
 10
-535.5907469391
 20
2041.9365852857
 30
0.0
 40
1.25
  0
CIRCLE
  5
1E8
330
1F
100
AcDbEntity
  8
0
  6
Continuous
 62
     7
370
    15
100
AcDbCircle
 10
-542.3407469391
 20
2048.6865852857
 30
0.0
 40
1.25
  0
CIRCLE
  5
1E9
330
1F
100
AcDbEntity
  8
0
  6
Continuous
 62
     7
370
    15
100
AcDbCircle
 10
-535.5907469391
 20
2055.4365852857
 30
0.0
 40
1.25
  0
CIRCLE
  5
1EA
330
1F
100
AcDbEntity
  8
0
  6
Continuous
 62
     7
370
    15
100
AcDbCircle
 10
244.4092530609
 20
2048.6865852857
 30
0.0
 40
15.00000000000007
  0
CIRCLE
  5
1EB
330
1F
100
AcDbEntity
  8
0
  6
Continuous
 62
     7
370
    15
100
AcDbCircle
 10
244.4092530609
 20
2048.6865852857
 30
0.0
 40
13.00000000000008
  0
CIRCLE
  5
1EC
330
1F
100
AcDbEntity
  8
0
  6
Continuous
 62
     7
370
    15
100
AcDbCircle
 10
250.5688113826
 20
2051.4474440798
 30
0.0
 40
1.249999999999905
  0
CIRCLE
  5
1ED
330
1F
100
AcDbEntity
  8
0
  6
Continuous
 62
     7
370
    15
100
AcDbCircle
 10
241.6483942668
 20
2054.8461436074
 30
0.0
 40
1.249999999999905
  0
CIRCLE
  5
1EE
330
1F
100
AcDbEntity
  8
0
  6
Continuous
 62
     7
370
    15
100
AcDbCircle
 10
238.2496947392
 20
2045.9257264915
 30
0.0
 40
1.249999999999998
  0
CIRCLE
  5
1EF
330
1F
100
AcDbEntity
  8
0
  6
Continuous
 62
     7
370
    15
100
AcDbCircle
 10
247.170111855
 20
2042.5270269639
 30
0.0
 40
1.249999999999998
  0
CIRCLE
  5
1F0
330
1F
100
AcDbEntity
  8
0
  6
Continuous
 62
     7
370
    15
100
AcDbCircle
 10
99.4092530609
 20
2048.6865852857
 30
0.0
 40
15.00000000000001
  0
CIRCLE
  5
1F1
330
1F
100
AcDbEntity
  8
0
  6
Continuous
 62
     7
370
    15
100
AcDbCircle
 10
99.4092530609
 20
2048.6865852857
 30
0.0
 40
13.0
  0
CIRCLE
  5
1F2
330
1F
100
AcDbEntity
  8
0
  6
Continuous
 62
     7
370
    15
100
AcDbCircle
 10
106.1592530609
 20
2048.6865852857
 30
0.0
 40
1.249999999999972
  0
CIRCLE
  5
1F3
330
1F
100
AcDbEntity
  8
0
  6
Continuous
 62
     7
370
    15
100
AcDbCircle
 10
99.4092530609
 20
2041.9365852857
 30
0.0
 40
1.250000000000085
  0
CIRCLE
  5
1F4
330
1F
100
AcDbEntity
  8
0
  6
Continuous
 62
     7
370
    15
100
AcDbCircle
 10
92.6592530609
 20
2048.6865852857
 30
0.0
 40
1.249999999999972
  0
CIRCLE
  5
1F5
330
1F
100
AcDbEntity
  8
0
  6
Continuous
 62
     7
370
    15
100
AcDbCircle
 10
99.4092530609
 20
2055.4365852857
 30
0.0
 40
1.249999999999972
  0
CIRCLE
  5
1F6
330
1F
100
AcDbEntity
  8
0
  6
Continuous
 62
     7
370
    15
100
AcDbCircle
 10
171.9092530609
 20
2117.6865852857
 30
0.0
 40
15.0
  0
CIRCLE
  5
1F7
330
1F
100
AcDbEntity
  8
0
  6
Continuous
 62
     7
370
    15
100
AcDbCircle
 10
171.9092530609
 20
2117.6865852857
 30
0.0
 40
13.0
  0
CIRCLE
  5
1F8
330
1F
100
AcDbEntity
  8
0
  6
Continuous
 62
     7
370
    15
100
AcDbCircle
 10
178.6592530609
 20
2117.6865852857
 30
0.0
 40
1.249999999999972
  0
CIRCLE
  5
1F9
330
1F
100
AcDbEntity
  8
0
  6
Continuous
 62
     7
370
    15
100
AcDbCircle
 10
171.9092530609
 20
2110.9365852857
 30
0.0
 40
1.250000000000085
  0
CIRCLE
  5
1FA
330
1F
100
AcDbEntity
  8
0
  6
Continuous
 62
     7
370
    15
100
AcDbCircle
 10
165.1592530609
 20
2117.6865852857
 30
0.0
 40
1.249999999999972
  0
CIRCLE
  5
1FB
330
1F
100
AcDbEntity
  8
0
  6
Continuous
 62
     7
370
    15
100
AcDbCircle
 10
171.9092530609
 20
2124.4365852857
 30
0.0
 40
1.25
  0
CIRCLE
  5
1FC
330
1F
100
AcDbEntity
  8
0
  6
Continuous
 62
     7
370
    15
100
AcDbCircle
 10
-456.3407469391
 20
2117.6865852857
 30
0.0
 40
1.25
  0
CIRCLE
  5
1FD
330
1F
100
AcDbEntity
  8
0
  6
Continuous
 62
     7
370
    15
100
AcDbCircle
 10
-463.0907469391
 20
2110.9365852857
 30
0.0
 40
1.249999999999943
  0
CIRCLE
  5
1FE
330
1F
100
AcDbEntity
  8
0
  6
Continuous
 62
     7
370
    15
100
AcDbCircle
 10
-463.0907469391
 20
2124.4365852857
 30
0.0
 40
1.249999999999943
  0
CIRCLE
  5
1FF
330
1F
100
AcDbEntity
  8
0
  6
Continuous
 62
     7
370
    15
100
AcDbCircle
 10
-463.0907469391
 20
2117.6865852857
 30
0.0
 40
13.0
  0
CIRCLE
  5
200
330
1F
100
AcDbEntity
  8
0
  6
Continuous
 62
     7
370
    15
100
AcDbCircle
 10
-469.8407469391
 20
2117.6865852857
 30
0.0
 40
1.25
  0
CIRCLE
  5
201
330
1F
100
AcDbEntity
  8
0
  6
Continuous
 62
     7
370
    15
100
AcDbCircle
 10
-463.0907469391
 20
2117.6865852857
 30
0.0
 40
15.00000000000006
  0
ARC
  5
202
330
1F
100
AcDbEntity
  8
0
  6
Continuous
 62
     7
370
    15
100
AcDbCircle
 10
171.9092530609
 20
2177.6865852857
 30
0.0
 40
29.00000000000014
100
AcDbArc
 50
298.2578834209
 51
241.7421165791
  0
ARC
  5
203
330
1F
100
AcDbEntity
  8
0
  6
Continuous
 62
     7
370
    15
100
AcDbCircle
 10
-463.0907469391
 20
2177.6865852857
 30
0.0
 40
28.99999999999979
100
AcDbArc
 50
298.2578834209
 51
241.7421165791
  0
LINE
  5
204
330
1F
100
AcDbEntity
  8
0
  6
Continuous
 62
     7
370
    15
100
AcDbLine
 10
-389.0907524713
 20
2026.1865872526
 30
0.0
 11
-392.0907436498
 21
2026.1865872526
 31
0.0
  0
LINE
  5
205
330
1F
100
AcDbEntity
  8
0
  6
Continuous
 62
     7
370
    15
100
AcDbLine
 10
-534.090746902
 20
2026.1865872526
 30
0.0
 11
-537.0907469281
 21
2026.1865872526
 31
0.0
  0
LINE
  5
206
330
1F
100
AcDbEntity
  8
0
  6
Continuous
 62
     7
370
    15
100
AcDbLine
 10
245.9092677943
 20
2026.1865872526
 30
0.0
 11
242.9092468134
 21
2026.1865872526
 31
0.0
  0
LINE
  5
207
330
1F
100
AcDbEntity
  8
0
  6
Continuous
 62
     7
370
    15
100
AcDbLine
 10
100.9092272631
 20
2026.1865872526
 30
0.0
 11
97.9092658869
 21
2026.1865872526
 31
0.0
  0
ARC
  5
208
330
1F
100
AcDbEntity
  8
0
  6
Continuous
 62
     7
370
    15
100
AcDbCircle
 10
99.4092530609
 20
2046.1865852857
 30
0.0
 40
19.99999999999997
100
AcDbArc
 50
80.9972250363
 51
1.5313031938
  0
ARC
  5
209
330
1F
100
AcDbEntity
  8
0
  6
Continuous
 62
     7
370
    15
100
AcDbCircle
 10
60.2037530609
 20
2154.3242229232
 30
0.0
 40
98.00000000000003
100
AcDbArc
 50
295.5939986742
 51
5.3973436848
  0
ARC
  5
20A
330
1F
100
AcDbEntity
  8
0
  6
Continuous
 62
     7
370
    15
100
AcDbCircle
 10
171.9092530609
 20
2177.6865852857
 30
0.0
 40
19.99999999999986
100
AcDbArc
 50
314.9913483372
 51
225.0086516628
  0
ARC
  5
20B
330
1F
100
AcDbEntity
  8
0
  6
Continuous
 62
     7
370
    15
100
AcDbCircle
 10
283.6147530609
 20
2154.3242229232
 30
0.0
 40
97.99999999999999
100
AcDbArc
 50
174.6026563152
 51
244.4060013258
  0
ARC
  5
20C
330
1F
100
AcDbEntity
  8
0
  6
Continuous
 62
     7
370
    15
100
AcDbCircle
 10
244.4092530609
 20
2046.1865852857
 30
0.0
 40
19.99999999999997
100
AcDbArc
 50
178.4686968062
 51
99.0027749637
  0
ARC
  5
20D
330
1F
100
AcDbEntity
  8
0
  6
Continuous
 62
     7
370
    15
100
AcDbCircle
 10
171.9092530609
 20
2017.6865852857
 30
0.0
 40
60.00000000000014
100
AcDbArc
 50
28.9409326669
 51
151.0590673331
  0
ARC
  5
20E
330
1F
100
AcDbEntity
  8
0
  6
Continuous
 62
     7
370
    15
100
AcDbCircle
 10
-574.7962469391
 20
2154.3242229232
 30
0.0
 40
98.00000000000016
100
AcDbArc
 50
295.5939986742
 51
5.3973436848
  0
ARC
  5
20F
330
1F
100
AcDbEntity
  8
0
  6
Continuous
 62
     7
370
    15
100
AcDbCircle
 10
-463.0907469391
 20
2177.6865852857
 30
0.0
 40
19.99999999999986
100
AcDbArc
 50
314.9913483372
 51
225.0086516628
  0
ARC
  5
210
330
1F
100
AcDbEntity
  8
0
  6
Continuous
 62
     7
370
    15
100
AcDbCircle
 10
-351.3852469391
 20
2154.3242229232
 30
0.0
 40
98.00000000000018
100
AcDbArc
 50
174.6026563152
 51
244.4060013258
  0
ARC
  5
211
330
1F
100
AcDbEntity
  8
0
  6
Continuous
 62
     7
370
    15
100
AcDbCircle
 10
-463.0907469391
 20
2017.6865852857
 30
0.0
 40
60.00000000000014
100
AcDbArc
 50
28.9409326669
 51
151.0590673331
  0
ARC
  5
212
330
1F
100
AcDbEntity
  8
0
  6
Continuous
 62
     7
370
    15
100
AcDbCircle
 10
-535.5907469391
 20
2046.1865852857
 30
0.0
 40
20.0
100
AcDbArc
 50
80.9972250363
 51
1.5313031938
  0
ARC
  5
213
330
1F
100
AcDbEntity
  8
0
  6
Continuous
 62
     7
370
    15
100
AcDbCircle
 10
-390.5907469391
 20
2046.1865852857
 30
0.0
 40
20.00000000000011
100
AcDbArc
 50
178.4686968062
 51
99.0027749637
  0
LINE
  5
214
330
1F
100
AcDbEntity
  8
0
  6
Continuous
 62
     7
370
    15
100
AcDbLine
 10
-661.586692799
 20
2151.6865854719
 30
0.0
 11
-661.586692799
 21
2126.6865850994
 31
0.0
  0
LINE
  5
215
330
1F
100
AcDbEntity
  8
0
  6
Continuous
 62
     7
370
    15
100
AcDbLine
 10
1136.41332997
 20
2126.6865850994
 30
0.0
 11
1136.41332997
 21
2151.6865854719
 31
0.0
  0
SPLINE
  5
216
330
1F
100
AcDbEntity
  8
0
  6
Continuous
 62
     7
370
    15
100
AcDbSpline
210
0.0
220
0.0
230
1.0
 70
    11
 71
     3
 72
    28
 73
    24
 74
     0
 42
0.000000001
 43
0.00000001
 40
0.0
 40
0.0
 40
0.0
 40
0.0
 40
0.0475551017581377
 40
0.0949664478301108
 40
0.1460694109748525
 40
0.2034572620135034
 40
0.2467854039304267
 40
0.2901854595561361
 40
0.3330337828653863
 40
0.3834830941484244
 40
0.4410924202715051
 40
0.4950486988046596
 40
0.5415905724712585
 40
0.5869408337005584
 40
0.6370247232952871
 40
0.6937086281078245
 40
0.7381340333147037
 40
0.7826955103207596
 40
0.8249696366383936
 40
0.8737310939239699
 40
0.9306923259971298
 40
0.9860188322291035
 40
1.0
 40
1.0
 40
1.0
 40
1.0
 10
-525.0366993807983
 20
2139.186585285655
 30
0.0
 10
-525.1066675512749
 20
2138.413787205475
 30
0.0
 10
-525.2463923834315
 20
2136.87052715868
 30
0.0
 10
-526.3193309600116
 20
2134.784828036962
 30
0.0
 10
-527.9736907800841
 20
2133.033533664584
 30
0.0
 10
-530.1017647784886
 20
2131.919971926508
 30
0.0
 10
-532.4272206813098
 20
2131.537492427652
 30
0.0
 10
-534.5419670796656
 20
2131.795371037481
 30
0.0
 10
-536.537142294902
 20
2132.631192547907
 30
0.0
 10
-538.3531809284036
 20
2134.102468595588
 30
0.0
 10
-539.7236860656286
 20
2136.27213446354
 30
0.0
 10
-540.2639363390393
 20
2138.821849811279
 30
0.0
 10
-539.9751193237925
 20
2141.205829846228
 30
0.0
 10
-539.0595822718707
 20
2143.283445645394
 30
0.0
 10
-537.5190330380751
 20
2145.078216774267
 30
0.0
 10
-535.4846784389765
 20
2146.296916374127
 30
0.0
 10
-533.1759157038186
 20
2146.819706910879
 30
0.0
 10
-531.012306130961
 20
2146.67091190654
 30
0.0
 10
-528.9821916086363
 20
2145.933836225841
 30
0.0
 10
-527.1230029226216
 20
2144.586158273381
 30
0.0
 10
-525.6473473475038
 20
2142.534500241994
 30
0.0
 10
-525.0742956643902
 20
2140.533781523702
 30
0.0
 10
-525.0430104296406
 20
2139.412730543811
 30
0.0
 10
-525.0366993807983
 20
2139.186585285655
 30
0.0
  0
SPLINE
  5
217
330
1F
100
AcDbEntity
  8
0
  6
Continuous
 62
     7
370
    15
100
AcDbSpline
210
0.0
220
0.0
230
1.0
 70
    11
 71
     3
 72
    28
 73
    24
 74
     0
 42
0.000000001
 43
0.00000001
 40
0.0
 40
0.0
 40
0.0
 40
0.0
 40
0.0475550284769205
 40
0.0949664402020547
 40
0.1460697055975589
 40
0.2034570429579919
 40
0.2467859374210582
 40
0.2901858692180441
 40
0.3330336579759088
 40
0.3834832694383457
 40
0.4410922691068714
 40
0.4950485986566343
 40
0.5415904552634542
 40
0.5869405342103252
 40
0.6370247871902202
 40
0.6937087306425688
 40
0.7381343604853257
 40
0.7826955934300744
 40
0.8249696934642723
 40
0.873731060031583
 40
0.930692461818582
 40
0.9860188302665687
 40
0.9999999999999999
 40
0.9999999999999999
 40
0.9999999999999999
 40
0.9999999999999999
 10
244.963282477038
 20
2139.186585285655
 30
0.0
 10
244.8933259172247
 20
2138.413786945604
 30
0.0
 10
244.7536240672411
 20
2136.870524125685
 30
0.0
 10
243.6806709499602
 20
2134.784821987621
 30
0.0
 10
242.026294312916
 20
2133.03354943716
 30
0.0
 10
239.8982315051972
 20
2131.919958692259
 30
0.0
 10
237.5727682855677
 20
2131.53749641044
 30
0.0
 10
235.4580184548197
 20
2131.79536455472
 30
0.0
 10
233.4628650082393
 20
2132.631207295722
 30
0.0
 10
231.6468053078539
 20
2134.102452071973
 30
0.0
 10
230.2763494120775
 20
2136.272146616815
 30
0.0
 10
229.736077751195
 20
2138.821847618714
 30
0.0
 10
230.0248902657406
 20
2141.205824082334
 30
0.0
 10
230.9403892026286
 20
2143.283460020686
 30
0.0
 10
232.4809800148681
 20
2145.078207530733
 30
0.0
 10
234.5153306422092
 20
2146.296919712673
 30
0.0
 10
236.8240972603687
 20
2146.819705535747
 30
0.0
 10
238.9877036333286
 20
2146.670910834705
 30
0.0
 10
241.0178144740409
 20
2145.933837668288
 30
0.0
 10
242.8769919678352
 20
2144.586151825479
 30
0.0
 10
244.3526771020555
 20
2142.53451011555
 30
0.0
 10
244.9256883497959
 20
2140.533778576112
 30
0.0
 10
244.9569717791403
 20
2139.412730444215
 30
0.0
 10
244.963282477038
 20
2139.186585285655
 30
0.0
  0
SPLINE
  5
218
330
1F
100
AcDbEntity
  8
0
  6
Continuous
 62
     7
370
    15
100
AcDbSpline
210
0.0
220
0.0
230
1.0
 70
    11
 71
     3
 72
    28
 73
    24
 74
     0
 42
0.000000001
 43
0.00000001
 40
0.0
 40
0.0
 40
0.0
 40
0.0
 40
0.0475549915920277
 40
0.094966366543662
 40
0.1460687887507327
 40
0.2034571310172704
 40
0.2467859918733412
 40
0.2901846749500625
 40
0.3330335307660281
 40
0.3834821964231643
 40
0.4410917761296267
 40
0.4950480638294845
 40
0.5415898843372535
 40
0.5869404062421034
 40
0.637023860665119
 40
0.6937077601519555
 40
0.7381321705706606
 40
0.7826958170677973
 40
0.8249698843131252
 40
0.8737312130598764
 40
0.9306925706661597
 40
0.9860188962016041
 40
1.0
 40
1.0
 40
1.0
 40
1.0
 10
1014.963263403552
 20
2139.186585285655
 30
0.0
 10
1014.893307774929
 20
2138.413786153691
 30
0.0
 10
1014.753607784515
 20
2136.870521752337
 30
0.0
 10
1013.680646294511
 20
2134.784843228116
 30
0.0
 10
1012.026331969189
 20
2133.03351236437
 30
0.0
 10
1009.89822212782
 20
2131.919974088978
 30
0.0
 10
1007.572768078094
 20
2131.537490038653
 30
0.0
 10
1005.458030746542
 20
2131.795386934971
 30
0.0
 10
1003.462856258406
 20
2132.631172803899
 30
0.0
 10
1001.646858109491
 20
2134.102491444838
 30
0.0
 10
1000.276312692428
 20
2136.272125992622
 30
0.0
 10
999.736069270381
 20
2138.821847135628
 30
0.0
 10
1000.024850247715
 20
2141.205840756134
 30
0.0
 10
1000.940452496001
 20
2143.283426589634
 30
0.0
 10
1002.480947366837
 20
2145.078229170225
 30
0.0
 10
1004.515301867226
 20
2146.296905319514
 30
0.0
 10
1006.824073579649
 20
2146.819713456624
 30
0.0
 10
1008.987708155622
 20
2146.670921867347
 30
0.0
 10
1011.017853495459
 20
2145.933838304911
 30
0.0
 10
1012.877039244367
 20
2144.58615189025
 30
0.0
 10
1014.352688333336
 20
2142.534508867315
 30
0.0
 10
1014.925800705648
 20
2140.533782684206
 30
0.0
 10
1014.956974784359
 20
2139.412730541883
 30
0.0
 10
1014.963263403552
 20
2139.186585285655
 30
0.0
  0
LINE
  5
219
330
1F
100
AcDbEntity
  8
0
  6
Continuous
 62
     7
370
    15
100
AcDbLine
 10
-662.5866948255
 20
2127.6865852633
 30
0.0
 11
-662.5866948255
 21
2150.686585308
 31
0.0
  0
LINE
  5
21A
330
1F
100
AcDbEntity
  8
0
  6
Continuous
 62
     7
370
    15
100
AcDbLine
 10
1137.4132574908
 20
2150.686585308
 30
0.0
 11
1137.4132574908
 21
2127.6865852633
 31
0.0
  0
LINE
  5
21B
330
1F
100
AcDbEntity
  8
0
  6
Continuous
 62
     7
370
    15
100
AcDbLine
 10
284.9132956377
 20
45.6866863751
 30
0.0
 11
284.9132956377
 21
49.6866348767
 31
0.0
  0
LINE
  5
21C
330
1F
100
AcDbEntity
  8
0
  6
Continuous
 62
     7
370
    15
100
AcDbLine
 10
225.4133166186
 20
49.6866348767
 30
0.0
 11
225.4133166186
 21
45.6866863751
 31
0.0
  0
LINE
  5
21D
330
1F
100
AcDbEntity
  8
0
  6
Continuous
 62
     7
370
    15
100
AcDbLine
 10
225.4133166186
 20
49.6866348767
 30
0.0
 11
284.9132956377
 21
49.6866348767
 31
0.0
  0
LINE
  5
21E
330
1F
100
AcDbEntity
  8
0
  6
Continuous
 62
     7
370
    15
100
AcDbLine
 10
225.4133166186
 20
45.6866863751
 30
0.0
 11
284.9132956377
 21
45.6866863751
 31
0.0
  0
LINE
  5
21F
330
1F
100
AcDbEntity
  8
0
  6
Continuous
 62
     7
370
    15
100
AcDbLine
 10
222.9133190028
 20
45.6866863751
 30
0.0
 11
222.9133190028
 21
49.6866348767
 31
0.0
  0
LINE
  5
220
330
1F
100
AcDbEntity
  8
0
  6
Continuous
 62
     7
370
    15
100
AcDbLine
 10
222.9133190028
 20
49.6866348767
 30
0.0
 11
225.4133166186
 21
49.6866348767
 31
0.0
  0
LINE
  5
221
330
1F
100
AcDbEntity
  8
0
  6
Continuous
 62
     7
370
    15
100
AcDbLine
 10
225.4133166186
 20
45.6866863751
 30
0.0
 11
222.9133190028
 21
45.6866863751
 31
0.0
  0
LINE
  5
222
330
1F
100
AcDbEntity
  8
0
  6
Continuous
 62
     7
370
    15
100
AcDbLine
 10
287.4132932536
 20
49.6866348767
 30
0.0
 11
287.4132932536
 21
45.6866863751
 31
0.0
  0
LINE
  5
223
330
1F
100
AcDbEntity
  8
0
  6
Continuous
 62
     7
370
    15
100
AcDbLine
 10
284.9132956377
 20
49.6866348767
 30
0.0
 11
287.4132932536
 21
49.6866348767
 31
0.0
  0
LINE
  5
224
330
1F
100
AcDbEntity
  8
0
  6
Continuous
 62
     7
370
    15
100
AcDbLine
 10
287.4132932536
 20
45.6866863751
 30
0.0
 11
284.9132956377
 21
45.6866863751
 31
0.0
  0
ARC
  5
225
330
1F
100
AcDbEntity
  8
0
  6
Continuous
 62
     7
370
    15
100
AcDbCircle
 10
234.8852085076
 20
50.818698413
 30
0.0
 40
1.825805676739334
100
AcDbArc
 50
321.681305057
 51
10.7833827129
  0
LINE
  5
226
330
1F
100
AcDbEntity
  8
0
  6
Continuous
 62
     7
370
    15
100
AcDbLine
 10
236.6787732951
 20
51.1603001141
 30
0.0
 11
263.147825133
 21
51.1603001141
 31
0.0
  0
ARC
  5
227
330
1F
100
AcDbEntity
  8
0
  6
Continuous
 62
     7
370
    15
100
AcDbCircle
 10
264.9413899205
 20
50.818698413
 30
0.0
 40
1.825805676739362
100
AcDbArc
 50
169.2166172871
 51
218.318694943
  0
CIRCLE
  5
228
330
1F
100
AcDbEntity
  8
0
  6
Continuous
 62
     7
370
    15
100
AcDbCircle
 10
-536.0276358965
 20
2136.6920998956
 30
0.0
 40
1.250000000000069
  0
CIRCLE
  5
229
330
1F
100
AcDbEntity
  8
0
  6
Continuous
 62
     7
370
    15
100
AcDbCircle
 10
-535.0811849839
 20
2142.6275215883
 30
0.0
 40
1.250000000000437
  0
CIRCLE
  5
22A
330
1F
100
AcDbEntity
  8
0
  6
Continuous
 62
     7
370
    15
100
AcDbCircle
 10
-529.1457632912
 20
2141.6810706757
 30
0.0
 40
1.250000000000002
  0
CIRCLE
  5
22B
330
1F
100
AcDbEntity
  8
0
  6
Continuous
 62
     7
370
    15
100
AcDbCircle
 10
-532.5866995939
 20
2139.1865852857
 30
0.0
 40
6.450000000000228
  0
CIRCLE
  5
22C
330
1F
100
AcDbEntity
  8
0
  6
Continuous
 62
     7
370
    15
100
AcDbCircle
 10
-530.0922142038
 20
2135.745648983
 30
0.0
 40
1.250000000000069
  0
CIRCLE
  5
22D
330
1F
100
AcDbEntity
  8
0
  6
Continuous
 62
     7
370
    15
100
AcDbCircle
 10
-532.5866995939
 20
2139.1865852857
 30
0.0
 40
7.450000000000236
  0
CIRCLE
  5
22E
330
1F
100
AcDbEntity
  8
0
  6
Continuous
 62
     7
370
    15
100
AcDbCircle
 10
233.9723641035
 20
2136.6920998956
 30
0.0
 40
1.250000000000052
  0
CIRCLE
  5
22F
330
1F
100
AcDbEntity
  8
0
  6
Continuous
 62
     7
370
    15
100
AcDbCircle
 10
234.9188150161
 20
2142.6275215883
 30
0.0
 40
1.250000000000487
  0
CIRCLE
  5
230
330
1F
100
AcDbEntity
  8
0
  6
Continuous
 62
     7
370
    15
100
AcDbCircle
 10
240.8542367088
 20
2141.6810706757
 30
0.0
 40
1.250000000000103
  0
CIRCLE
  5
231
330
1F
100
AcDbEntity
  8
0
  6
Continuous
 62
     7
370
    15
100
AcDbCircle
 10
239.9077857962
 20
2135.745648983
 30
0.0
 40
1.250000000000052
  0
CIRCLE
  5
232
330
1F
100
AcDbEntity
  8
0
  6
Continuous
 62
     7
370
    15
100
AcDbCircle
 10
237.4133004061
 20
2139.1865852857
 30
0.0
 40
6.450000000000277
  0
CIRCLE
  5
233
330
1F
100
AcDbEntity
  8
0
  6
Continuous
 62
     7
370
    15
100
AcDbCircle
 10
237.4133004061
 20
2139.1865852857
 30
0.0
 40
7.450000000000252
  0
CIRCLE
  5
234
330
1F
100
AcDbEntity
  8
0
  6
Continuous
 62
     7
370
    15
100
AcDbCircle
 10
1010.8542367088
 20
2141.6810706757
 30
0.0
 40
1.249999999999936
  0
CIRCLE
  5
235
330
1F
100
AcDbEntity
  8
0
  6
Continuous
 62
     7
370
    15
100
AcDbCircle
 10
1009.9077857962
 20
2135.745648983
 30
0.0
 40
1.249999999999936
  0
CIRCLE
  5
236
330
1F
100
AcDbEntity
  8
0
  6
Continuous
 62
     7
370
    15
100
AcDbCircle
 10
1007.4133004061
 20
2139.1865852857
 30
0.0
 40
6.450000000000294
  0
CIRCLE
  5
237
330
1F
100
AcDbEntity
  8
0
  6
Continuous
 62
     7
370
    15
100
AcDbCircle
 10
1004.9188150161
 20
2142.6275215883
 30
0.0
 40
1.250000000000437
  0
CIRCLE
  5
238
330
1F
100
AcDbEntity
  8
0
  6
Continuous
 62
     7
370
    15
100
AcDbCircle
 10
1003.9723641035
 20
2136.6920998956
 30
0.0
 40
1.250000000000136
  0
CIRCLE
  5
239
330
1F
100
AcDbEntity
  8
0
  6
Continuous
 62
     7
370
    15
100
AcDbCircle
 10
1007.4133004061
 20
2139.1865852857
 30
0.0
 40
7.450000000000302
  0
ARC
  5
23A
330
1F
100
AcDbEntity
  8
0
  6
Continuous
 62
     7
370
    15
100
AcDbCircle
 10
237.4133004061
 20
2139.1865852857
 30
0.0
 40
14.99999999999959
100
AcDbArc
 50
236.4426902381
 51
303.5573097619
  0
ARC
  5
23B
330
1F
100
AcDbEntity
  8
0
  6
Continuous
 62
     7
370
    15
100
AcDbCircle
 10
237.4133004061
 20
2139.1865852857
 30
0.0
 40
14.99999999999997
100
AcDbArc
 50
56.4426902381
 51
123.5573097619
  0
ARC
  5
23C
330
1F
100
AcDbEntity
  8
0
  6
Continuous
 62
     7
370
    15
100
AcDbCircle
 10
237.4133004061
 20
2139.1865852857
 30
0.0
 40
30.00000000000017
100
AcDbArc
 50
24.6243183522
 51
155.3756816478
  0
ARC
  5
23D
330
1F
100
AcDbEntity
  8
0
  6
Continuous
 62
     7
370
    15
100
AcDbCircle
 10
237.4133004061
 20
2139.1865852857
 30
0.0
 40
29.99999999999998
100
AcDbArc
 50
204.6243183522
 51
335.3756816478
  0
ARC
  5
23E
330
1F
100
AcDbEntity
  8
0
  6
Continuous
 62
     7
370
    15
100
AcDbCircle
 10
-532.5866995939
 20
2139.1865852857
 30
0.0
 40
14.99999999999962
100
AcDbArc
 50
237.7690473645
 51
303.5573097619
  0
ARC
  5
23F
330
1F
100
AcDbEntity
  8
0
  6
Continuous
 62
     7
370
    15
100
AcDbCircle
 10
-532.5866995939
 20
2139.1865852857
 30
0.0
 40
15.0
100
AcDbArc
 50
56.4426902381
 51
123.5573097619
  0
ARC
  5
240
330
1F
100
AcDbEntity
  8
0
  6
Continuous
 62
     7
370
    15
100
AcDbCircle
 10
-532.5866995939
 20
2139.1865852857
 30
0.0
 40
30.00000000000022
100
AcDbArc
 50
24.6243183522
 51
155.3756816478
  0
ARC
  5
241
330
1F
100
AcDbEntity
  8
0
  6
Continuous
 62
     7
370
    15
100
AcDbCircle
 10
-532.5866995939
 20
2139.1865852857
 30
0.0
 40
30.00000000000003
100
AcDbArc
 50
241.6423634237
 51
335.3756816478
  0
ARC
  5
242
330
1F
100
AcDbEntity
  8
0
  6
Continuous
 62
     7
370
    15
100
AcDbCircle
 10
1007.4133004061
 20
2139.1865852857
 30
0.0
 40
14.99999999999969
100
AcDbArc
 50
236.4426902381
 51
302.2309526355
  0
ARC
  5
243
330
1F
100
AcDbEntity
  8
0
  6
Continuous
 62
     7
370
    15
100
AcDbCircle
 10
1007.4133004061
 20
2139.1865852857
 30
0.0
 40
15.00000000000006
100
AcDbArc
 50
56.4426902381
 51
123.5573097619
  0
ARC
  5
244
330
1F
100
AcDbEntity
  8
0
  6
Continuous
 62
     7
370
    15
100
AcDbCircle
 10
1007.4133004061
 20
2139.1865852857
 30
0.0
 40
30.00000000000012
100
AcDbArc
 50
24.6243183522
 51
155.3756816478
  0
ARC
  5
245
330
1F
100
AcDbEntity
  8
0
  6
Continuous
 62
     7
370
    15
100
AcDbCircle
 10
1007.4133004061
 20
2139.1865852857
 30
0.0
 40
30.00000000000002
100
AcDbArc
 50
204.6243183522
 51
298.3576365763
  0
LINE
  5
246
330
1F
100
AcDbEntity
  8
0
  6
Continuous
 62
     8
370
    15
100
AcDbLine
 10
1052.7132691256
 20
2124.4020014638
 30
0.0
 11
1052.7132691256
 21
2110.2915852898
 31
0.0
  0
LINE
  5
247
330
1F
100
AcDbEntity
  8
0
  6
Continuous
 62
     8
370
    15
100
AcDbLine
 10
1052.7132691256
 20
2125.2815853441
 30
0.0
 11
1052.7132691256
 21
2124.4020014638
 31
0.0
  0
LINE
  5
248
330
1F
100
AcDbEntity
  8
0
  6
Continuous
 62
     8
370
    15
100
AcDbLine
 10
-577.8866990098
 20
2110.2915852898
 30
0.0
 11
-577.8866990098
 21
2125.2815853441
 31
0.0
  0
LINE
  5
249
330
1F
100
AcDbEntity
  8
0
  6
Continuous
 62
     8
370
    15
100
AcDbLine
 10
1023.2132614962
 20
2119.3405780578
 30
0.0
 11
1023.2132614962
 21
2111.8365861112
 31
0.0
  0
LINE
  5
24A
330
1F
100
AcDbEntity
  8
0
  6
Continuous
 62
     8
370
    15
100
AcDbLine
 10
1023.2132614962
 20
2123.736585454
 30
0.0
 11
1023.2132614962
 21
2119.3405780578
 31
0.0
  0
LINE
  5
24B
330
1F
100
AcDbEntity
  8
0
  6
Continuous
 62
     8
370
    15
100
AcDbLine
 10
-548.3866988309
 20
2111.8365861112
 30
0.0
 11
-548.3866988309
 21
2123.736585454
 31
0.0
  0
LINE
  5
24C
330
1F
100
AcDbEntity
  8
0
  6
Continuous
 62
     8
370
    15
100
AcDbLine
 10
-577.8866990098
 20
2126.6865850994
 30
0.0
 11
-577.8866990098
 21
2125.2815853441
 31
0.0
  0
LINE
  5
24D
330
1F
100
AcDbEntity
  8
0
  6
Continuous
 62
     8
370
    15
100
AcDbLine
 10
-563.9950281569
 20
2125.1865848535
 30
0.0
 11
-563.9950281569
 21
2126.6865850994
 31
0.0
  0
LINE
  5
24E
330
1F
100
AcDbEntity
  8
0
  6
Continuous
 62
     8
370
    15
100
AcDbLine
 10
-563.9950281569
 20
2123.736585454
 30
0.0
 11
-563.9950281569
 21
2125.1865848535
 31
0.0
  0
LINE
  5
24F
330
1F
100
AcDbEntity
  8
0
  6
Continuous
 62
     8
370
    15
100
AcDbLine
 10
-561.419632528
 20
2126.6865850994
 30
0.0
 11
-561.419632528
 21
2123.736585454
 31
0.0
  0
LINE
  5
250
330
1F
100
AcDbEntity
  8
0
  6
Continuous
 62
     8
370
    15
100
AcDbLine
 10
-548.1021509134
 20
2126.6865850994
 30
0.0
 11
-548.1021509134
 21
2123.5316227758
 31
0.0
  0
LINE
  5
251
330
1F
100
AcDbEntity
  8
0
  6
Continuous
 62
     8
370
    15
100
AcDbLine
 10
-550.9097187408
 20
2125.1865848535
 30
0.0
 11
-550.9097187408
 21
2126.6865850994
 31
0.0
  0
LINE
  5
252
330
1F
100
AcDbEntity
  8
0
  6
Continuous
 62
     8
370
    15
100
AcDbLine
 10
-550.9097187408
 20
2123.736585454
 30
0.0
 11
-550.9097187408
 21
2125.1865848535
 31
0.0
  0
LINE
  5
253
330
1F
100
AcDbEntity
  8
0
  6
Continuous
 62
     8
370
    15
100
AcDbLine
 10
-541.5119093471
 20
2125.1865848535
 30
0.0
 11
-541.5119093471
 21
2126.6865850994
 31
0.0
  0
LINE
  5
254
330
1F
100
AcDbEntity
  8
0
  6
Continuous
 62
     8
370
    15
100
AcDbLine
 10
-541.5119093471
 20
2122.8671948993
 30
0.0
 11
-541.5119093471
 21
2125.1865848535
 31
0.0
  0
LINE
  5
255
330
1F
100
AcDbEntity
  8
0
  6
Continuous
 62
     8
370
    15
100
AcDbLine
 10
-558.5867001303
 20
2125.1865848535
 30
0.0
 11
-558.5867001303
 21
2126.6865850994
 31
0.0
  0
LINE
  5
256
330
1F
100
AcDbEntity
  8
0
  6
Continuous
 62
     8
370
    15
100
AcDbLine
 10
-558.5867001303
 20
2123.736585454
 30
0.0
 11
-558.5867001303
 21
2125.1865848535
 31
0.0
  0
LINE
  5
257
330
1F
100
AcDbEntity
  8
0
  6
Continuous
 62
     8
370
    15
100
AcDbLine
 10
-553.5866993108
 20
2125.1865848535
 30
0.0
 11
-553.5866993108
 21
2126.6865850994
 31
0.0
  0
LINE
  5
258
330
1F
100
AcDbEntity
  8
0
  6
Continuous
 62
     8
370
    15
100
AcDbLine
 10
-553.5866993108
 20
2123.736585454
 30
0.0
 11
-553.5866993108
 21
2125.1865848535
 31
0.0
  0
LINE
  5
259
330
1F
100
AcDbEntity
  8
0
  6
Continuous
 62
     8
370
    15
100
AcDbLine
 10
1052.7132691256
 20
2125.2815853441
 30
0.0
 11
1052.7132691256
 21
2126.6865850994
 31
0.0
  0
LINE
  5
25A
330
1F
100
AcDbEntity
  8
0
  6
Continuous
 62
     8
370
    15
100
AcDbLine
 10
1036.2461747042
 20
2123.736585454
 30
0.0
 11
1036.2461747042
 21
2126.6865850994
 31
0.0
  0
LINE
  5
25B
330
1F
100
AcDbEntity
  8
0
  6
Continuous
 62
     8
370
    15
100
AcDbLine
 10
1038.8215721957
 20
2126.6865850994
 30
0.0
 11
1038.8215721957
 21
2123.736585454
 31
0.0
  0
LINE
  5
25C
330
1F
100
AcDbEntity
  8
0
  6
Continuous
 62
     8
370
    15
100
AcDbLine
 10
1022.928708922
 20
2123.5316227758
 30
0.0
 11
1022.928708922
 21
2126.6865850994
 31
0.0
  0
LINE
  5
25D
330
1F
100
AcDbEntity
  8
0
  6
Continuous
 62
     8
370
    15
100
AcDbLine
 10
1025.7363261095
 20
2126.6865850994
 30
0.0
 11
1025.7363261095
 21
2123.736585454
 31
0.0
  0
LINE
  5
25E
330
1F
100
AcDbEntity
  8
0
  6
Continuous
 62
     8
370
    15
100
AcDbLine
 10
1016.3384617678
 20
2122.9330505812
 30
0.0
 11
1016.3384617678
 21
2122.8671948993
 31
0.0
  0
LINE
  5
25F
330
1F
100
AcDbEntity
  8
0
  6
Continuous
 62
     8
370
    15
100
AcDbLine
 10
1016.3384617678
 20
2126.6865850994
 30
0.0
 11
1016.3384617678
 21
2122.9330505812
 31
0.0
  0
LINE
  5
260
330
1F
100
AcDbEntity
  8
0
  6
Continuous
 62
     8
370
    15
100
AcDbLine
 10
1033.4132851473
 20
2126.6865850994
 30
0.0
 11
1033.4132851473
 21
2123.736585454
 31
0.0
  0
LINE
  5
261
330
1F
100
AcDbEntity
  8
0
  6
Continuous
 62
     8
370
    15
100
AcDbLine
 10
1028.4132899157
 20
2126.6865850994
 30
0.0
 11
1028.4132899157
 21
2123.736585454
 31
0.0
  0
LINE
  5
262
330
1F
100
AcDbEntity
  8
0
  6
Continuous
 62
     8
370
    15
100
AcDbLine
 10
236.6893829218
 20
53.6865833783
 30
0.0
 11
236.6787732951
 21
51.1603001141
 31
0.0
  0
LINE
  5
263
330
1F
100
AcDbEntity
  8
0
  6
Continuous
 62
     8
370
    15
100
AcDbLine
 10
263.1372155062
 20
53.6865833783
 30
0.0
 11
263.147825133
 21
51.1603001141
 31
0.0
  0
LINE
  5
264
330
1F
100
AcDbEntity
  8
0
  6
Continuous
 62
     8
370
    15
100
AcDbLine
 10
235.9390200488
 20
51.1603001141
 30
0.0
 11
236.6787732951
 21
51.1603001141
 31
0.0
  0
LINE
  5
265
330
1F
100
AcDbEntity
  8
0
  6
Continuous
 62
     8
370
    15
100
AcDbLine
 10
263.147825133
 20
51.1603001141
 30
0.0
 11
263.8875783793
 21
51.1603001141
 31
0.0
  0
LINE
  5
266
330
1F
100
AcDbEntity
  8
0
  6
Continuous
 62
     7
370
    15
100
AcDbLine
 10
1101.4132441393
 20
-184.0755882438
 30
0.0
 11
1101.1133135668
 21
-183.7755887535
 31
0.0
  0
LINE
  5
267
330
1F
100
AcDbEntity
  8
0
  6
Continuous
 62
     7
370
    15
100
AcDbLine
 10
1053.7133158556
 20
-183.7755887535
 30
0.0
 11
1053.4132660738
 21
-184.0755882438
 31
0.0
  0
LINE
  5
268
330
1F
100
AcDbEntity
  8
0
  6
Continuous
 62
     7
370
    15
100
AcDbLine
 10
1053.4132660738
 20
-211.2755867418
 30
0.0
 11
1053.4132660738
 21
-219.9755887266
 31
0.0
  0
LINE
  5
269
330
1F
100
AcDbEntity
  8
0
  6
Continuous
 62
     7
370
    15
100
AcDbLine
 10
1053.4132660738
 20
-184.0755882438
 30
0.0
 11
1053.4132660738
 21
-186.2755882319
 31
0.0
  0
LINE
  5
26A
330
1F
100
AcDbEntity
  8
0
  6
Continuous
 62
     7
370
    15
100
AcDbLine
 10
1101.4132441393
 20
-186.2755882319
 30
0.0
 11
1101.4132441393
 21
-184.0755882438
 31
0.0
  0
LINE
  5
26B
330
1F
100
AcDbEntity
  8
0
  6
Continuous
 62
     7
370
    15
100
AcDbLine
 10
1101.4132441393
 20
-219.9755887266
 30
0.0
 11
1101.4132441393
 21
-211.2755867418
 31
0.0
  0
LINE
  5
26C
330
1F
100
AcDbEntity
  8
0
  6
Continuous
 62
     7
370
    15
100
AcDbLine
 10
1053.4132660738
 20
-219.9755887266
 30
0.0
 11
1053.7133158556
 21
-220.2755900797
 31
0.0
  0
LINE
  5
26D
330
1F
100
AcDbEntity
  8
0
  6
Continuous
 62
     7
370
    15
100
AcDbLine
 10
1101.1133135668
 20
-220.2755900797
 30
0.0
 11
1101.4132441393
 21
-219.9755887266
 31
0.0
  0
ARC
  5
26E
330
1F
100
AcDbEntity
  8
0
  6
Continuous
 62
     7
370
    15
100
AcDbCircle
 10
1052.7133004061
 20
-212.9705883511
 30
0.0
 40
0.3000000000000114
100
AcDbArc
 50
180.0
 51
270.0
  0
LINE
  5
26F
330
1F
100
AcDbEntity
  8
0
  6
Continuous
 62
     7
370
    15
100
AcDbLine
 10
1052.7132691256
 20
-213.27058773
 30
0.0
 11
1053.4132660738
 21
-213.27058773
 31
0.0
  0
LINE
  5
270
330
1F
100
AcDbEntity
  8
0
  6
Continuous
 62
     7
370
    15
100
AcDbLine
 10
-578.5866996833
 20
-213.27058773
 30
0.0
 11
-577.8866990098
 21
-213.27058773
 31
0.0
  0
ARC
  5
271
330
1F
100
AcDbEntity
  8
0
  6
Continuous
 62
     7
370
    15
100
AcDbCircle
 10
-577.8866995939
 20
-212.9705883511
 30
0.0
 40
0.3000000000000114
100
AcDbArc
 50
270.0
 51
0.0
  0
LINE
  5
272
330
1F
100
AcDbEntity
  8
0
  6
Continuous
 62
     7
370
    15
100
AcDbLine
 10
1023.2132614962
 20
-211.7255869087
 30
0.0
 11
1052.4133385531
 21
-211.7255869087
 31
0.0
  0
ARC
  5
273
330
1F
100
AcDbEntity
  8
0
  6
Continuous
 62
     7
370
    15
100
AcDbCircle
 10
1023.2133004061
 20
-211.4255883511
 30
0.0
 40
0.3000000000000114
100
AcDbArc
 50
180.0
 51
270.0
  0
ARC
  5
274
330
1F
100
AcDbEntity
  8
0
  6
Continuous
 62
     7
370
    15
100
AcDbCircle
 10
-548.3866995939
 20
-211.4255883511
 30
0.0
 40
0.3000000000000114
100
AcDbArc
 50
270.0
 51
0.0
  0
LINE
  5
275
330
1F
100
AcDbEntity
  8
0
  6
Continuous
 62
     7
370
    15
100
AcDbLine
 10
-577.586701382
 20
-211.7255869087
 30
0.0
 11
-548.3866988309
 21
-211.7255869087
 31
0.0
  0
LINE
  5
276
330
1F
100
AcDbEntity
  8
0
  6
Continuous
 62
     7
370
    15
100
AcDbLine
 10
-626.5866963752
 20
-220.4755897399
 30
0.0
 11
-626.5866963752
 21
-223.775589722
 31
0.0
  0
LINE
  5
277
330
1F
100
AcDbEntity
  8
0
  6
Continuous
 62
     7
370
    15
100
AcDbLine
 10
-578.5866996833
 20
-223.775589722
 30
0.0
 11
-578.5866996833
 21
-220.4755897399
 31
0.0
  0
LINE
  5
278
330
1F
100
AcDbEntity
  8
0
  6
Continuous
 62
     7
370
    15
100
AcDbLine
 10
-578.5866996833
 20
-220.4755897399
 30
0.0
 11
-578.7866993435
 21
-220.2755900797
 31
0.0
  0
LINE
  5
279
330
1F
100
AcDbEntity
  8
0
  6
Continuous
 62
     7
370
    15
100
AcDbLine
 10
-626.3867004403
 20
-220.2755900797
 30
0.0
 11
-626.5866963752
 21
-220.4755897399
 31
0.0
  0
LINE
  5
27A
330
1F
100
AcDbEntity
  8
0
  6
Continuous
 62
     7
370
    15
100
AcDbLine
 10
-626.5866963752
 20
-223.775589722
 30
0.0
 11
-624.5866997727
 21
-225.7755900499
 31
0.0
  0
LINE
  5
27B
330
1F
100
AcDbEntity
  8
0
  6
Continuous
 62
     7
370
    15
100
AcDbLine
 10
-580.5867000111
 20
-225.7755900499
 30
0.0
 11
-578.5866996833
 21
-223.775589722
 31
0.0
  0
LINE
  5
27C
330
1F
100
AcDbEntity
  8
0
  6
Continuous
 62
     7
370
    15
100
AcDbLine
 10
1101.4132441393
 20
-220.4755897399
 30
0.0
 11
1101.2133301608
 21
-220.2755900797
 31
0.0
  0
LINE
  5
27D
330
1F
100
AcDbEntity
  8
0
  6
Continuous
 62
     7
370
    15
100
AcDbLine
 10
1053.6132992617
 20
-220.2755900797
 30
0.0
 11
1053.4132660738
 21
-220.4755897399
 31
0.0
  0
LINE
  5
27E
330
1F
100
AcDbEntity
  8
0
  6
Continuous
 62
     7
370
    15
100
AcDbLine
 10
1053.4132660738
 20
-220.4755897399
 30
0.0
 11
1053.4132660738
 21
-223.775589722
 31
0.0
  0
LINE
  5
27F
330
1F
100
AcDbEntity
  8
0
  6
Continuous
 62
     7
370
    15
100
AcDbLine
 10
1101.4132441393
 20
-223.775589722
 30
0.0
 11
1101.4132441393
 21
-220.4755897399
 31
0.0
  0
LINE
  5
280
330
1F
100
AcDbEntity
  8
0
  6
Continuous
 62
     7
370
    15
100
AcDbLine
 10
1053.4132660738
 20
-223.775589722
 30
0.0
 11
1055.4133595339
 21
-225.7755900499
 31
0.0
  0
LINE
  5
281
330
1F
100
AcDbEntity
  8
0
  6
Continuous
 62
     7
370
    15
100
AcDbLine
 10
1099.4132698885
 20
-225.7755900499
 30
0.0
 11
1101.4132441393
 21
-223.775589722
 31
0.0
  0
ARC
  5
282
330
1F
100
AcDbEntity
  8
0
  6
Continuous
 62
     7
370
    15
100
AcDbCircle
 10
-577.8866995939
 20
-186.0755883511
 30
0.0
 40
0.1000000000000227
100
AcDbArc
 50
90.0
 51
180.0
  0
LINE
  5
283
330
1F
100
AcDbEntity
  8
0
  6
Continuous
 62
     7
370
    15
100
AcDbLine
 10
-575.5867010542
 20
-185.9755887415
 30
0.0
 11
-577.8866990098
 21
-185.9755887415
 31
0.0
  0
LINE
  5
284
330
1F
100
AcDbEntity
  8
0
  6
Continuous
 62
     7
370
    15
100
AcDbLine
 10
-563.9950281569
 20
-185.9755887415
 30
0.0
 11
-572.0867014118
 21
-185.9755887415
 31
0.0
  0
ARC
  5
285
330
1F
100
AcDbEntity
  8
0
  6
Continuous
 62
     7
370
    15
100
AcDbCircle
 10
-563.9950265071
 20
-190.9755883511
 30
0.0
 40
5.0
100
AcDbArc
 50
70.0515564112
 51
90.0
  0
ARC
  5
286
330
1F
100
AcDbEntity
  8
0
  6
Continuous
 62
     7
370
    15
100
AcDbCircle
 10
-548.4761006899
 20
-191.147926049
 30
0.0
 40
5.000000000000012
100
AcDbArc
 50
85.7108466712
 51
102.9751495065
  0
LINE
  5
287
330
1F
100
AcDbEntity
  8
0
  6
Continuous
 62
     7
370
    15
100
AcDbLine
 10
-546.586700026
 20
-186.2755882319
 30
0.0
 11
-548.1021509134
 21
-186.1619296249
 31
0.0
  0
LINE
  5
288
330
1F
100
AcDbEntity
  8
0
  6
Continuous
 62
     7
370
    15
100
AcDbLine
 10
-577.9867007025
 20
-186.2255892482
 30
0.0
 11
-578.5866996833
 21
-186.2255892482
 31
0.0
  0
LINE
  5
289
330
1F
100
AcDbEntity
  8
0
  6
Continuous
 62
     7
370
    15
100
AcDbLine
 10
1052.7132691256
 20
-185.9755887415
 30
0.0
 11
1038.8215721957
 21
-185.9755887415
 31
0.0
  0
ARC
  5
28A
330
1F
100
AcDbEntity
  8
0
  6
Continuous
 62
     7
370
    15
100
AcDbCircle
 10
1052.7133004061
 20
-186.0755883511
 30
0.0
 40
0.1000000000001364
100
AcDbArc
 50
0.0
 51
90.0
  0
ARC
  5
28B
330
1F
100
AcDbEntity
  8
0
  6
Continuous
 62
     7
370
    15
100
AcDbCircle
 10
1038.8216273193
 20
-190.9755883511
 30
0.0
 40
5.000000000000034
100
AcDbArc
 50
90.0
 51
109.9484435888
  0
ARC
  5
28C
330
1F
100
AcDbEntity
  8
0
  6
Continuous
 62
     7
370
    15
100
AcDbCircle
 10
1023.3027015022
 20
-191.147926049
 30
0.0
 40
5.000000000000004
100
AcDbArc
 50
77.0248504935
 51
94.2891533288
  0
LINE
  5
28D
330
1F
100
AcDbEntity
  8
0
  6
Continuous
 62
     7
370
    15
100
AcDbLine
 10
1022.928708922
 20
-186.1619296249
 30
0.0
 11
1021.4133204333
 21
-186.2755882319
 31
0.0
  0
LINE
  5
28E
330
1F
100
AcDbEntity
  8
0
  6
Continuous
 62
     7
370
    15
100
AcDbLine
 10
1053.4132660738
 20
-186.2255892482
 30
0.0
 11
1052.8132857195
 21
-186.2255892482
 31
0.0
  0
LINE
  5
28F
330
1F
100
AcDbEntity
  8
0
  6
Continuous
 62
     7
370
    15
100
AcDbLine
 10
-578.5866996833
 20
-184.0755882438
 30
0.0
 11
-578.8867010363
 21
-183.7755887535
 31
0.0
  0
LINE
  5
290
330
1F
100
AcDbEntity
  8
0
  6
Continuous
 62
     7
370
    15
100
AcDbLine
 10
-626.2866987475
 20
-183.7755887535
 30
0.0
 11
-626.5866963752
 21
-184.0755882438
 31
0.0
  0
LINE
  5
291
330
1F
100
AcDbEntity
  8
0
  6
Continuous
 62
     7
370
    15
100
AcDbLine
 10
-626.5866963752
 20
-211.2755867418
 30
0.0
 11
-626.5866963752
 21
-219.9755887266
 31
0.0
  0
LINE
  5
292
330
1F
100
AcDbEntity
  8
0
  6
Continuous
 62
     7
370
    15
100
AcDbLine
 10
-626.5866963752
 20
-184.0755882438
 30
0.0
 11
-626.5866963752
 21
-186.2755882319
 31
0.0
  0
LINE
  5
293
330
1F
100
AcDbEntity
  8
0
  6
Continuous
 62
     7
370
    15
100
AcDbLine
 10
-578.5866996833
 20
-186.2755882319
 30
0.0
 11
-578.5866996833
 21
-184.0755882438
 31
0.0
  0
LINE
  5
294
330
1F
100
AcDbEntity
  8
0
  6
Continuous
 62
     7
370
    15
100
AcDbLine
 10
-578.5866996833
 20
-219.9755887266
 30
0.0
 11
-578.5866996833
 21
-211.2755867418
 31
0.0
  0
LINE
  5
295
330
1F
100
AcDbEntity
  8
0
  6
Continuous
 62
     7
370
    15
100
AcDbLine
 10
-626.5866963752
 20
-219.9755887266
 30
0.0
 11
-626.2866987475
 21
-220.2755900797
 31
0.0
  0
LINE
  5
296
330
1F
100
AcDbEntity
  8
0
  6
Continuous
 62
     7
370
    15
100
AcDbLine
 10
-578.8867010363
 20
-220.2755900797
 30
0.0
 11
-578.5866996833
 21
-219.9755887266
 31
0.0
  0
LINE
  5
297
330
1F
100
AcDbEntity
  8
0
  6
Continuous
 62
     7
370
    15
100
AcDbLine
 10
163.9092506281
 20
-184.7755889174
 30
0.0
 11
163.9092506281
 21
-185.7755890813
 31
0.0
  0
LINE
  5
298
330
1F
100
AcDbEntity
  8
0
  6
Continuous
 62
     7
370
    15
100
AcDbLine
 10
179.9092234484
 20
-185.7755890813
 30
0.0
 11
179.9092234484
 21
-184.7755889174
 31
0.0
  0
LINE
  5
299
330
1F
100
AcDbEntity
  8
0
  6
Continuous
 62
     7
370
    15
100
AcDbLine
 10
-471.0907472857
 20
-184.7755889174
 30
0.0
 11
-471.0907472857
 21
-185.7755890813
 31
0.0
  0
LINE
  5
29A
330
1F
100
AcDbEntity
  8
0
  6
Continuous
 62
     7
370
    15
100
AcDbLine
 10
-455.0907446631
 20
-185.7755890813
 30
0.0
 11
-455.0907446631
 21
-184.7755889174
 31
0.0
  0
LINE
  5
29B
330
1F
100
AcDbEntity
  8
0
  6
Continuous
 62
     7
370
    15
100
AcDbLine
 10
-448.0907453784
 20
-187.7755875465
 30
0.0
 11
-450.0907494315
 21
-185.7755890813
 31
0.0
  0
LINE
  5
29C
330
1F
100
AcDbEntity
  8
0
  6
Continuous
 62
     7
370
    15
100
AcDbLine
 10
-476.0907462426
 20
-185.7755890813
 30
0.0
 11
-478.0907465705
 21
-187.7755875465
 31
0.0
  0
LINE
  5
29D
330
1F
100
AcDbEntity
  8
0
  6
Continuous
 62
     7
370
    15
100
AcDbLine
 10
-478.0907465705
 20
-187.7755875465
 30
0.0
 11
-478.0907465705
 21
-188.7755877104
 31
0.0
  0
LINE
  5
29E
330
1F
100
AcDbEntity
  8
0
  6
Continuous
 62
     7
370
    15
100
AcDbLine
 10
-448.0907453784
 20
-188.7755877104
 30
0.0
 11
-448.0907453784
 21
-187.7755875465
 31
0.0
  0
LINE
  5
29F
330
1F
100
AcDbEntity
  8
0
  6
Continuous
 62
     7
370
    15
100
AcDbLine
 10
-472.8407471069
 20
-188.7755877104
 30
0.0
 11
-472.8407471069
 21
-189.1455891308
 31
0.0
  0
LINE
  5
2A0
330
1F
100
AcDbEntity
  8
0
  6
Continuous
 62
     7
370
    15
100
AcDbLine
 10
-453.3407448419
 20
-189.1455891308
 30
0.0
 11
-453.3407448419
 21
-188.7755877104
 31
0.0
  0
LINE
  5
2A1
330
1F
100
AcDbEntity
  8
0
  6
Continuous
 62
     7
370
    15
100
AcDbLine
 10
-472.6707472094
 20
-189.6455882814
 30
0.0
 11
-472.5407457539
 21
-189.7755878743
 31
0.0
  0
LINE
  5
2A2
330
1F
100
AcDbEntity
  8
0
  6
Continuous
 62
     7
370
    15
100
AcDbLine
 10
-453.6407499202
 20
-189.7755878743
 30
0.0
 11
-453.5107447394
 21
-189.6455882814
 31
0.0
  0
LINE
  5
2A3
330
1F
100
AcDbEntity
  8
0
  6
Continuous
 62
     7
370
    15
100
AcDbLine
 10
186.9092525355
 20
-187.7755875465
 30
0.0
 11
184.9092782847
 21
-185.7755890813
 31
0.0
  0
LINE
  5
2A4
330
1F
100
AcDbEntity
  8
0
  6
Continuous
 62
     7
370
    15
100
AcDbLine
 10
158.9092553965
 20
-185.7755890813
 30
0.0
 11
156.9092811457
 21
-187.7755875465
 31
0.0
  0
LINE
  5
2A5
330
1F
100
AcDbEntity
  8
0
  6
Continuous
 62
     7
370
    15
100
AcDbLine
 10
156.9092811457
 20
-187.7755875465
 30
0.0
 11
156.9092811457
 21
-188.7755877104
 31
0.0
  0
LINE
  5
2A6
330
1F
100
AcDbEntity
  8
0
  6
Continuous
 62
     7
370
    15
100
AcDbLine
 10
186.9092525355
 20
-188.7755877104
 30
0.0
 11
186.9092525355
 21
-187.7755875465
 31
0.0
  0
LINE
  5
2A7
330
1F
100
AcDbEntity
  8
0
  6
Continuous
 62
     7
370
    15
100
AcDbLine
 10
162.1592582575
 20
-188.7755877104
 30
0.0
 11
162.1592582575
 21
-189.1455891308
 31
0.0
  0
LINE
  5
2A8
330
1F
100
AcDbEntity
  8
0
  6
Continuous
 62
     7
370
    15
100
AcDbLine
 10
181.6592754237
 20
-189.1455891308
 30
0.0
 11
181.6592754237
 21
-188.7755877104
 31
0.0
  0
LINE
  5
2A9
330
1F
100
AcDbEntity
  8
0
  6
Continuous
 62
     7
370
    15
100
AcDbLine
 10
162.3292507044
 20
-189.6455882814
 30
0.0
 11
162.4592484347
 21
-189.7755878743
 31
0.0
  0
LINE
  5
2AA
330
1F
100
AcDbEntity
  8
0
  6
Continuous
 62
     7
370
    15
100
AcDbLine
 10
181.3592256419
 20
-189.7755878743
 30
0.0
 11
181.4892233721
 21
-189.6455882814
 31
0.0
  0
LINE
  5
2AB
330
1F
100
AcDbEntity
  8
0
  6
Continuous
 62
     7
370
    15
100
AcDbLine
 10
-492.0407480188
 20
-189.1455891308
 30
0.0
 11
-492.0407480188
 21
-189.6455882814
 31
0.0
  0
LINE
  5
2AC
330
1F
100
AcDbEntity
  8
0
  6
Continuous
 62
     7
370
    15
100
AcDbLine
 10
-434.1407476553
 20
-189.6455882814
 30
0.0
 11
-434.1407476553
 21
-189.1455891308
 31
0.0
  0
LINE
  5
2AD
330
1F
100
AcDbEntity
  8
0
  6
Continuous
 62
     7
370
    15
100
AcDbLine
 10
-434.1407476553
 20
-208.4055895683
 30
0.0
 11
-434.1407476553
 21
-207.905588555
 31
0.0
  0
LINE
  5
2AE
330
1F
100
AcDbEntity
  8
0
  6
Continuous
 62
     7
370
    15
100
AcDbLine
 10
-492.0407480188
 20
-207.905588555
 30
0.0
 11
-492.0407480188
 21
-208.4055895683
 31
0.0
  0
LINE
  5
2AF
330
1F
100
AcDbEntity
  8
0
  6
Continuous
 62
     7
370
    15
100
AcDbLine
 10
200.859242808
 20
-208.4055895683
 30
0.0
 11
200.859242808
 21
-207.905588555
 31
0.0
  0
LINE
  5
2B0
330
1F
100
AcDbEntity
  8
0
  6
Continuous
 62
     7
370
    15
100
AcDbLine
 10
142.9592312685
 20
-207.905588555
 30
0.0
 11
142.9592312685
 21
-208.4055895683
 31
0.0
  0
LINE
  5
2B1
330
1F
100
AcDbEntity
  8
0
  6
Continuous
 62
     7
370
    15
100
AcDbLine
 10
142.9592312685
 20
-189.1455891308
 30
0.0
 11
142.9592312685
 21
-189.6455882814
 31
0.0
  0
LINE
  5
2B2
330
1F
100
AcDbEntity
  8
0
  6
Continuous
 62
     7
370
    15
100
AcDbLine
 10
200.859242808
 20
-189.6455882814
 30
0.0
 11
200.859242808
 21
-189.1455891308
 31
0.0
  0
LINE
  5
2B3
330
1F
100
AcDbEntity
  8
0
  6
Continuous
 62
     7
370
    15
100
AcDbLine
 10
-448.0907453784
 20
-209.0755867537
 30
0.0
 11
-448.3907504567
 21
-208.775589126
 31
0.0
  0
LINE
  5
2B4
330
1F
100
AcDbEntity
  8
0
  6
Continuous
 62
     7
370
    15
100
AcDbLine
 10
-477.7907452174
 20
-208.775589126
 30
0.0
 11
-478.0907465705
 21
-209.0755867537
 31
0.0
  0
LINE
  5
2B5
330
1F
100
AcDbEntity
  8
0
  6
Continuous
 62
     7
370
    15
100
AcDbLine
 10
-448.0907453784
 20
-215.4755870577
 30
0.0
 11
-448.0907453784
 21
-209.0755867537
 31
0.0
  0
LINE
  5
2B6
330
1F
100
AcDbEntity
  8
0
  6
Continuous
 62
     7
370
    15
100
AcDbLine
 10
-478.0907465705
 20
-209.0755867537
 30
0.0
 11
-478.0907465705
 21
-215.4755870577
 31
0.0
  0
LINE
  5
2B7
330
1F
100
AcDbEntity
  8
0
  6
Continuous
 62
     7
370
    15
100
AcDbLine
 10
-478.0907465705
 20
-215.4755870577
 30
0.0
 11
-477.7907452174
 21
-215.7755884107
 31
0.0
  0
LINE
  5
2B8
330
1F
100
AcDbEntity
  8
0
  6
Continuous
 62
     7
370
    15
100
AcDbLine
 10
-448.3907504567
 20
-215.7755884107
 30
0.0
 11
-448.0907453784
 21
-215.4755870577
 31
0.0
  0
LINE
  5
2B9
330
1F
100
AcDbEntity
  8
0
  6
Continuous
 62
     7
370
    15
100
AcDbLine
 10
-453.5107447394
 20
-207.905588555
 30
0.0
 11
-453.6407499202
 21
-207.7755870994
 31
0.0
  0
LINE
  5
2BA
330
1F
100
AcDbEntity
  8
0
  6
Continuous
 62
     7
370
    15
100
AcDbLine
 10
-472.5407457539
 20
-207.7755870994
 30
0.0
 11
-472.6707472094
 21
-207.905588555
 31
0.0
  0
LINE
  5
2BB
330
1F
100
AcDbEntity
  8
0
  6
Continuous
 62
     7
370
    15
100
AcDbLine
 10
-453.3407448419
 20
-208.775589126
 30
0.0
 11
-453.3407448419
 21
-208.4055895683
 31
0.0
  0
LINE
  5
2BC
330
1F
100
AcDbEntity
  8
0
  6
Continuous
 62
     7
370
    15
100
AcDbLine
 10
-472.8407471069
 20
-208.4055895683
 30
0.0
 11
-472.8407471069
 21
-208.775589126
 31
0.0
  0
LINE
  5
2BD
330
1F
100
AcDbEntity
  8
0
  6
Continuous
 62
     7
370
    15
100
AcDbLine
 10
186.9092525355
 20
-209.0755867537
 30
0.0
 11
186.6092623583
 21
-208.775589126
 31
0.0
  0
LINE
  5
2BE
330
1F
100
AcDbEntity
  8
0
  6
Continuous
 62
     7
370
    15
100
AcDbLine
 10
157.2092713229
 20
-208.775589126
 30
0.0
 11
156.9092811457
 21
-209.0755867537
 31
0.0
  0
LINE
  5
2BF
330
1F
100
AcDbEntity
  8
0
  6
Continuous
 62
     7
370
    15
100
AcDbLine
 10
186.9092525355
 20
-215.4755870577
 30
0.0
 11
186.9092525355
 21
-209.0755867537
 31
0.0
  0
LINE
  5
2C0
330
1F
100
AcDbEntity
  8
0
  6
Continuous
 62
     7
370
    15
100
AcDbLine
 10
156.9092811457
 20
-209.0755867537
 30
0.0
 11
156.9092811457
 21
-215.4755870577
 31
0.0
  0
LINE
  5
2C1
330
1F
100
AcDbEntity
  8
0
  6
Continuous
 62
     7
370
    15
100
AcDbLine
 10
156.9092811457
 20
-215.4755870577
 30
0.0
 11
157.2092713229
 21
-215.7755884107
 31
0.0
  0
LINE
  5
2C2
330
1F
100
AcDbEntity
  8
0
  6
Continuous
 62
     7
370
    15
100
AcDbLine
 10
186.6092623583
 20
-215.7755884107
 30
0.0
 11
186.9092525355
 21
-215.4755870577
 31
0.0
  0
LINE
  5
2C3
330
1F
100
AcDbEntity
  8
0
  6
Continuous
 62
     7
370
    15
100
AcDbLine
 10
181.4892233721
 20
-207.905588555
 30
0.0
 11
181.3592256419
 21
-207.7755870994
 31
0.0
  0
LINE
  5
2C4
330
1F
100
AcDbEntity
  8
0
  6
Continuous
 62
     7
370
    15
100
AcDbLine
 10
162.4592484347
 20
-207.7755870994
 30
0.0
 11
162.3292507044
 21
-207.905588555
 31
0.0
  0
LINE
  5
2C5
330
1F
100
AcDbEntity
  8
0
  6
Continuous
 62
     7
370
    15
100
AcDbLine
 10
181.6592754237
 20
-208.775589126
 30
0.0
 11
181.6592754237
 21
-208.4055895683
 31
0.0
  0
LINE
  5
2C6
330
1F
100
AcDbEntity
  8
0
  6
Continuous
 62
     7
370
    15
100
AcDbLine
 10
162.1592582575
 20
-208.4055895683
 30
0.0
 11
162.1592582575
 21
-208.775589126
 31
0.0
  0
LINE
  5
2C7
330
1F
100
AcDbEntity
  8
0
  6
Continuous
 62
     7
370
    15
100
AcDbLine
 10
-405.5907486566
 20
-177.7755887013
 30
0.0
 11
-405.5907486566
 21
-179.7755880978
 31
0.0
  0
LINE
  5
2C8
330
1F
100
AcDbEntity
  8
0
  6
Continuous
 62
     7
370
    15
100
AcDbLine
 10
-375.5907474645
 20
-179.7755880978
 30
0.0
 11
-375.5907474645
 21
-177.7755887013
 31
0.0
  0
LINE
  5
2C9
330
1F
100
AcDbEntity
  8
0
  6
Continuous
 62
     7
370
    15
100
AcDbLine
 10
-375.5907474645
 20
-177.7755887013
 30
0.0
 11
-377.5907515176
 21
-175.7755883735
 31
0.0
  0
LINE
  5
2CA
330
1F
100
AcDbEntity
  8
0
  6
Continuous
 62
     7
370
    15
100
AcDbLine
 10
-403.5907446035
 20
-175.7755883735
 30
0.0
 11
-405.5907486566
 21
-177.7755887013
 31
0.0
  0
LINE
  5
2CB
330
1F
100
AcDbEntity
  8
0
  6
Continuous
 62
     7
370
    15
100
AcDbLine
 10
-550.5907463469
 20
-177.7755887013
 30
0.0
 11
-550.5907463469
 21
-179.7755880978
 31
0.0
  0
LINE
  5
2CC
330
1F
100
AcDbEntity
  8
0
  6
Continuous
 62
     7
370
    15
100
AcDbLine
 10
-520.5907470175
 20
-179.7755880978
 30
0.0
 11
-520.5907470175
 21
-177.7755887013
 31
0.0
  0
LINE
  5
2CD
330
1F
100
AcDbEntity
  8
0
  6
Continuous
 62
     7
370
    15
100
AcDbLine
 10
-520.5907470175
 20
-177.7755887013
 30
0.0
 11
-522.5907473453
 21
-175.7755883735
 31
0.0
  0
LINE
  5
2CE
330
1F
100
AcDbEntity
  8
0
  6
Continuous
 62
     7
370
    15
100
AcDbLine
 10
-548.5907460191
 20
-175.7755883735
 30
0.0
 11
-550.5907463469
 21
-177.7755887013
 31
0.0
  0
LINE
  5
2CF
330
1F
100
AcDbEntity
  8
0
  6
Continuous
 62
     7
370
    15
100
AcDbLine
 10
259.4092429987
 20
-177.7755887013
 30
0.0
 11
257.4092687479
 21
-175.7755883735
 31
0.0
  0
LINE
  5
2D0
330
1F
100
AcDbEntity
  8
0
  6
Continuous
 62
     7
370
    15
100
AcDbLine
 10
229.9132884852
 20
-177.2715410914
 30
0.0
 11
229.409271609
 21
-177.7755887013
 31
0.0
  0
LINE
  5
2D1
330
1F
100
AcDbEntity
  8
0
  6
Continuous
 62
     7
370
    15
100
AcDbLine
 10
229.409271609
 20
-177.7755887013
 30
0.0
 11
229.409271609
 21
-179.7755880978
 31
0.0
  0
LINE
  5
2D2
330
1F
100
AcDbEntity
  8
0
  6
Continuous
 62
     7
370
    15
100
AcDbLine
 10
259.4092429987
 20
-179.7755880978
 30
0.0
 11
259.4092429987
 21
-177.7755887013
 31
0.0
  0
LINE
  5
2D3
330
1F
100
AcDbEntity
  8
0
  6
Continuous
 62
     7
370
    15
100
AcDbLine
 10
84.4092310778
 20
-177.7755887013
 30
0.0
 11
84.4092310778
 21
-179.7755880978
 31
0.0
  0
LINE
  5
2D4
330
1F
100
AcDbEntity
  8
0
  6
Continuous
 62
     7
370
    15
100
AcDbLine
 10
114.4092620722
 20
-179.7755880978
 30
0.0
 11
114.4092620722
 21
-177.7755887013
 31
0.0
  0
LINE
  5
2D5
330
1F
100
AcDbEntity
  8
0
  6
Continuous
 62
     7
370
    15
100
AcDbLine
 10
114.4092620722
 20
-177.7755887013
 30
0.0
 11
112.4092282168
 21
-175.7755883735
 31
0.0
  0
LINE
  5
2D6
330
1F
100
AcDbEntity
  8
0
  6
Continuous
 62
     7
370
    15
100
AcDbLine
 10
86.4092649332
 20
-175.7755883735
 30
0.0
 11
84.4092310778
 21
-177.7755887013
 31
0.0
  0
LINE
  5
2D7
330
1F
100
AcDbEntity
  8
0
  6
Continuous
 62
     7
370
    15
100
AcDbLine
 10
-448.0907453784
 20
-227.7755903777
 30
0.0
 11
-448.0907453784
 21
-225.7755900499
 31
0.0
  0
LINE
  5
2D8
330
1F
100
AcDbEntity
  8
0
  6
Continuous
 62
     7
370
    15
100
AcDbLine
 10
-478.0907465705
 20
-225.7755900499
 30
0.0
 11
-478.0907465705
 21
-227.7755903777
 31
0.0
  0
LINE
  5
2D9
330
1F
100
AcDbEntity
  8
0
  6
Continuous
 62
     7
370
    15
100
AcDbLine
 10
-478.0907465705
 20
-227.7755903777
 30
0.0
 11
-476.0907462426
 21
-229.7755869802
 31
0.0
  0
LINE
  5
2DA
330
1F
100
AcDbEntity
  8
0
  6
Continuous
 62
     7
370
    15
100
AcDbLine
 10
-450.0907494315
 20
-229.7755869802
 30
0.0
 11
-448.0907453784
 21
-227.7755903777
 31
0.0
  0
LINE
  5
2DB
330
1F
100
AcDbEntity
  8
0
  6
Continuous
 62
     7
370
    15
100
AcDbLine
 10
186.9092525355
 20
-227.7755903777
 30
0.0
 11
186.9092525355
 21
-225.7755900499
 31
0.0
  0
LINE
  5
2DC
330
1F
100
AcDbEntity
  8
0
  6
Continuous
 62
     7
370
    15
100
AcDbLine
 10
156.9092811457
 20
-225.7755900499
 30
0.0
 11
156.9092811457
 21
-227.7755903777
 31
0.0
  0
LINE
  5
2DD
330
1F
100
AcDbEntity
  8
0
  6
Continuous
 62
     7
370
    15
100
AcDbLine
 10
156.9092811457
 20
-227.7755903777
 30
0.0
 11
158.9092553965
 21
-229.7755869802
 31
0.0
  0
LINE
  5
2DE
330
1F
100
AcDbEntity
  8
0
  6
Continuous
 62
     7
370
    15
100
AcDbLine
 10
184.9092782847
 20
-229.7755869802
 30
0.0
 11
186.9092525355
 21
-227.7755903777
 31
0.0
  0
LINE
  5
2DF
330
1F
100
AcDbEntity
  8
0
  6
Continuous
 62
     7
370
    15
100
AcDbLine
 10
-448.0907453784
 20
-219.5755894061
 30
0.0
 11
-448.0907453784
 21
-215.975588071
 31
0.0
  0
LINE
  5
2E0
330
1F
100
AcDbEntity
  8
0
  6
Continuous
 62
     7
370
    15
100
AcDbLine
 10
-478.0907465705
 20
-215.975588071
 30
0.0
 11
-478.0907465705
 21
-219.5755894061
 31
0.0
  0
LINE
  5
2E1
330
1F
100
AcDbEntity
  8
0
  6
Continuous
 62
     7
370
    15
100
AcDbLine
 10
-448.0907453784
 20
-215.975588071
 30
0.0
 11
-448.2907487639
 21
-215.7755884107
 31
0.0
  0
LINE
  5
2E2
330
1F
100
AcDbEntity
  8
0
  6
Continuous
 62
     7
370
    15
100
AcDbLine
 10
-477.8907469102
 20
-215.7755884107
 30
0.0
 11
-478.0907465705
 21
-215.975588071
 31
0.0
  0
LINE
  5
2E3
330
1F
100
AcDbEntity
  8
0
  6
Continuous
 62
     7
370
    15
100
AcDbLine
 10
-478.0907465705
 20
-219.5755894061
 30
0.0
 11
-477.8907469102
 21
-219.7755890664
 31
0.0
  0
LINE
  5
2E4
330
1F
100
AcDbEntity
  8
0
  6
Continuous
 62
     7
370
    15
100
AcDbLine
 10
-448.2907487639
 20
-219.7755890664
 30
0.0
 11
-448.0907453784
 21
-219.5755894061
 31
0.0
  0
LINE
  5
2E5
330
1F
100
AcDbEntity
  8
0
  6
Continuous
 62
     7
370
    15
100
AcDbLine
 10
186.9092525355
 20
-219.5755894061
 30
0.0
 11
186.9092525355
 21
-215.975588071
 31
0.0
  0
LINE
  5
2E6
330
1F
100
AcDbEntity
  8
0
  6
Continuous
 62
     7
370
    15
100
AcDbLine
 10
156.9092811457
 20
-215.975588071
 30
0.0
 11
156.9092811457
 21
-219.5755894061
 31
0.0
  0
LINE
  5
2E7
330
1F
100
AcDbEntity
  8
0
  6
Continuous
 62
     7
370
    15
100
AcDbLine
 10
186.9092525355
 20
-215.975588071
 30
0.0
 11
186.7092789523
 21
-215.7755884107
 31
0.0
  0
LINE
  5
2E8
330
1F
100
AcDbEntity
  8
0
  6
Continuous
 62
     7
370
    15
100
AcDbLine
 10
157.1092547289
 20
-215.7755884107
 30
0.0
 11
156.9092811457
 21
-215.975588071
 31
0.0
  0
LINE
  5
2E9
330
1F
100
AcDbEntity
  8
0
  6
Continuous
 62
     7
370
    15
100
AcDbLine
 10
156.9092811457
 20
-219.5755894061
 30
0.0
 11
157.1092547289
 21
-219.7755890664
 31
0.0
  0
LINE
  5
2EA
330
1F
100
AcDbEntity
  8
0
  6
Continuous
 62
     7
370
    15
100
AcDbLine
 10
186.7092789523
 20
-219.7755890664
 30
0.0
 11
186.9092525355
 21
-219.5755894061
 31
0.0
  0
LINE
  5
2EB
330
1F
100
AcDbEntity
  8
0
  6
Continuous
 62
     7
370
    15
100
AcDbLine
 10
-375.5907474645
 20
-227.7755903777
 30
0.0
 11
-375.5907474645
 21
-225.7755900499
 31
0.0
  0
LINE
  5
2EC
330
1F
100
AcDbEntity
  8
0
  6
Continuous
 62
     7
370
    15
100
AcDbLine
 10
-405.5907486566
 20
-225.7755900499
 30
0.0
 11
-405.5907486566
 21
-227.7755903777
 31
0.0
  0
LINE
  5
2ED
330
1F
100
AcDbEntity
  8
0
  6
Continuous
 62
     7
370
    15
100
AcDbLine
 10
-405.5907486566
 20
-227.7755903777
 30
0.0
 11
-403.5907446035
 21
-229.7755869802
 31
0.0
  0
LINE
  5
2EE
330
1F
100
AcDbEntity
  8
0
  6
Continuous
 62
     7
370
    15
100
AcDbLine
 10
-377.5907515176
 20
-229.7755869802
 30
0.0
 11
-375.5907474645
 21
-227.7755903777
 31
0.0
  0
LINE
  5
2EF
330
1F
100
AcDbEntity
  8
0
  6
Continuous
 62
     7
370
    15
100
AcDbLine
 10
-520.5907470175
 20
-227.7755903777
 30
0.0
 11
-520.5907470175
 21
-225.7755900499
 31
0.0
  0
LINE
  5
2F0
330
1F
100
AcDbEntity
  8
0
  6
Continuous
 62
     7
370
    15
100
AcDbLine
 10
-550.5907463469
 20
-225.7755900499
 30
0.0
 11
-550.5907463469
 21
-227.7755903777
 31
0.0
  0
LINE
  5
2F1
330
1F
100
AcDbEntity
  8
0
  6
Continuous
 62
     7
370
    15
100
AcDbLine
 10
-550.5907463469
 20
-227.7755903777
 30
0.0
 11
-548.5907460191
 21
-229.7755869802
 31
0.0
  0
LINE
  5
2F2
330
1F
100
AcDbEntity
  8
0
  6
Continuous
 62
     7
370
    15
100
AcDbLine
 10
-522.5907473453
 20
-229.7755869802
 30
0.0
 11
-520.5907470175
 21
-227.7755903777
 31
0.0
  0
LINE
  5
2F3
330
1F
100
AcDbEntity
  8
0
  6
Continuous
 62
     7
370
    15
100
AcDbLine
 10
259.4092429987
 20
-227.7755903777
 30
0.0
 11
259.4092429987
 21
-225.7755900499
 31
0.0
  0
LINE
  5
2F4
330
1F
100
AcDbEntity
  8
0
  6
Continuous
 62
     7
370
    15
100
AcDbLine
 10
229.409271609
 20
-225.7755900499
 30
0.0
 11
229.409271609
 21
-227.7755903777
 31
0.0
  0
LINE
  5
2F5
330
1F
100
AcDbEntity
  8
0
  6
Continuous
 62
     7
370
    15
100
AcDbLine
 10
229.409271609
 20
-227.7755903777
 30
0.0
 11
231.4092458598
 21
-229.7755869802
 31
0.0
  0
LINE
  5
2F6
330
1F
100
AcDbEntity
  8
0
  6
Continuous
 62
     7
370
    15
100
AcDbLine
 10
257.4092687479
 20
-229.7755869802
 30
0.0
 11
259.4092429987
 21
-227.7755903777
 31
0.0
  0
LINE
  5
2F7
330
1F
100
AcDbEntity
  8
0
  6
Continuous
 62
     7
370
    15
100
AcDbLine
 10
114.4092620722
 20
-227.7755903777
 30
0.0
 11
114.4092620722
 21
-225.7755900499
 31
0.0
  0
LINE
  5
2F8
330
1F
100
AcDbEntity
  8
0
  6
Continuous
 62
     7
370
    15
100
AcDbLine
 10
84.4092310778
 20
-225.7755900499
 30
0.0
 11
84.4092310778
 21
-227.7755903777
 31
0.0
  0
LINE
  5
2F9
330
1F
100
AcDbEntity
  8
0
  6
Continuous
 62
     7
370
    15
100
AcDbLine
 10
84.4092310778
 20
-227.7755903777
 30
0.0
 11
86.4092649332
 21
-229.7755869802
 31
0.0
  0
LINE
  5
2FA
330
1F
100
AcDbEntity
  8
0
  6
Continuous
 62
     7
370
    15
100
AcDbLine
 10
112.4092282168
 20
-229.7755869802
 30
0.0
 11
114.4092620722
 21
-227.7755903777
 31
0.0
  0
LINE
  5
2FB
330
1F
100
AcDbEntity
  8
0
  6
Continuous
 62
     7
370
    15
100
AcDbLine
 10
200.909251105
 20
-190.7960175302
 30
0.0
 11
200.909251105
 21
-189.7755878743
 31
0.0
  0
LINE
  5
2FC
330
1F
100
AcDbEntity
  8
0
  6
Continuous
 62
     7
370
    15
100
AcDbLine
 10
142.9092825762
 20
-189.7755878743
 30
0.0
 11
142.9092825762
 21
-190.7960175302
 31
0.0
  0
ARC
  5
2FD
330
1F
100
AcDbEntity
  8
0
  6
Continuous
 62
     7
370
    15
100
AcDbCircle
 10
210.5092530609
 20
-198.8016397744
 30
0.0
 40
12.49999999999998
100
AcDbArc
 50
140.1746287392
 51
219.8253712608
  0
ARC
  5
2FE
330
1F
100
AcDbEntity
  8
0
  6
Continuous
 62
     7
370
    15
100
AcDbCircle
 10
133.3092530609
 20
-198.8016397744
 30
0.0
 40
12.49999999999998
100
AcDbArc
 50
320.1746287392
 51
39.8253712608
  0
LINE
  5
2FF
330
1F
100
AcDbEntity
  8
0
  6
Continuous
 62
     7
370
    15
100
AcDbLine
 10
200.909251105
 20
-207.7755870994
 30
0.0
 11
200.909251105
 21
-206.8072612163
 31
0.0
  0
LINE
  5
300
330
1F
100
AcDbEntity
  8
0
  6
Continuous
 62
     7
370
    15
100
AcDbLine
 10
142.9092825762
 20
-206.8072612163
 30
0.0
 11
142.9092825762
 21
-207.7755870994
 31
0.0
  0
LINE
  5
301
330
1F
100
AcDbEntity
  8
0
  6
Continuous
 62
     7
370
    15
100
AcDbLine
 10
-434.0907468089
 20
-190.7960175302
 30
0.0
 11
-434.0907468089
 21
-189.7755878743
 31
0.0
  0
LINE
  5
302
330
1F
100
AcDbEntity
  8
0
  6
Continuous
 62
     7
370
    15
100
AcDbLine
 10
-492.0907451399
 20
-189.7755878743
 30
0.0
 11
-492.0907451399
 21
-190.7960175302
 31
0.0
  0
ARC
  5
303
330
1F
100
AcDbEntity
  8
0
  6
Continuous
 62
     7
370
    15
100
AcDbCircle
 10
-424.4907469391
 20
-198.8016397744
 30
0.0
 40
12.50000000000006
100
AcDbArc
 50
140.1746287392
 51
219.8253712608
  0
ARC
  5
304
330
1F
100
AcDbEntity
  8
0
  6
Continuous
 62
     7
370
    15
100
AcDbCircle
 10
-501.6907469391
 20
-198.8016397744
 30
0.0
 40
12.49999999999993
100
AcDbArc
 50
320.1746287392
 51
39.8253712608
  0
LINE
  5
305
330
1F
100
AcDbEntity
  8
0
  6
Continuous
 62
     7
370
    15
100
AcDbLine
 10
-434.0907468089
 20
-207.7755870994
 30
0.0
 11
-434.0907468089
 21
-206.8072612163
 31
0.0
  0
LINE
  5
306
330
1F
100
AcDbEntity
  8
0
  6
Continuous
 62
     7
370
    15
100
AcDbLine
 10
-492.0907451399
 20
-206.8072612163
 30
0.0
 11
-492.0907451399
 21
-207.7755870994
 31
0.0
  0
LINE
  5
307
330
1F
100
AcDbEntity
  8
0
  6
Continuous
 62
     7
370
    15
100
AcDbLine
 10
191.9092477671
 20
-225.7755900499
 30
0.0
 11
191.9092477671
 21
-219.7755890664
 31
0.0
  0
LINE
  5
308
330
1F
100
AcDbEntity
  8
0
  6
Continuous
 62
     7
370
    15
100
AcDbLine
 10
151.9092263094
 20
-219.7755890664
 30
0.0
 11
151.9092263094
 21
-225.7755900499
 31
0.0
  0
LINE
  5
309
330
1F
100
AcDbEntity
  8
0
  6
Continuous
 62
     7
370
    15
100
AcDbLine
 10
264.4092382304
 20
-225.7755900499
 30
0.0
 11
264.4092382304
 21
-219.7755890664
 31
0.0
  0
LINE
  5
30A
330
1F
100
AcDbEntity
  8
0
  6
Continuous
 62
     7
370
    15
100
AcDbLine
 10
79.4092358462
 20
-219.7755890664
 30
0.0
 11
79.4092358462
 21
-225.7755900499
 31
0.0
  0
LINE
  5
30B
330
1F
100
AcDbEntity
  8
0
  6
Continuous
 62
     7
370
    15
100
AcDbLine
 10
-443.0907501467
 20
-225.7755900499
 30
0.0
 11
-443.0907501467
 21
-219.7755890664
 31
0.0
  0
LINE
  5
30C
330
1F
100
AcDbEntity
  8
0
  6
Continuous
 62
     7
370
    15
100
AcDbLine
 10
-483.0907455274
 20
-219.7755890664
 30
0.0
 11
-483.0907455274
 21
-225.7755900499
 31
0.0
  0
LINE
  5
30D
330
1F
100
AcDbEntity
  8
0
  6
Continuous
 62
     7
370
    15
100
AcDbLine
 10
-370.5907522329
 20
-225.7755900499
 30
0.0
 11
-370.5907522329
 21
-219.7755890664
 31
0.0
  0
LINE
  5
30E
330
1F
100
AcDbEntity
  8
0
  6
Continuous
 62
     7
370
    15
100
AcDbLine
 10
-555.5907471665
 20
-219.7755890664
 30
0.0
 11
-555.5907471665
 21
-225.7755900499
 31
0.0
  0
LINE
  5
30F
330
1F
100
AcDbEntity
  8
0
  6
Continuous
 62
     7
370
    15
100
AcDbLine
 10
-661.586692799
 20
-186.2755882319
 30
0.0
 11
-662.5866948255
 21
-187.2755883958
 31
0.0
  0
LINE
  5
310
330
1F
100
AcDbEntity
  8
0
  6
Continuous
 62
     7
370
    15
100
AcDbLine
 10
-662.5866948255
 20
-210.2755884405
 30
0.0
 11
-661.586692799
 21
-211.2755867418
 31
0.0
  0
LINE
  5
311
330
1F
100
AcDbEntity
  8
0
  6
Continuous
 62
     7
370
    15
100
AcDbLine
 10
1014.9632634036
 20
-211.2755867418
 30
0.0
 11
1055.752629172
 21
-211.2755867418
 31
0.0
  0
LINE
  5
312
330
1F
100
AcDbEntity
  8
0
  6
Continuous
 62
     7
370
    15
100
AcDbLine
 10
1099.1520823351
 20
-211.2755867418
 30
0.0
 11
1136.41332997
 21
-211.2755867418
 31
0.0
  0
LINE
  5
313
330
1F
100
AcDbEntity
  8
0
  6
Continuous
 62
     7
370
    15
100
AcDbLine
 10
244.963282477
 20
-211.2755867418
 30
0.0
 11
999.8952092043
 21
-211.2755867418
 31
0.0
  0
LINE
  5
314
330
1F
100
AcDbEntity
  8
0
  6
Continuous
 62
     7
370
    15
100
AcDbLine
 10
-525.0366993808
 20
-211.2755867418
 30
0.0
 11
-478.0907465705
 21
-211.2755867418
 31
0.0
  0
LINE
  5
315
330
1F
100
AcDbEntity
  8
0
  6
Continuous
 62
     7
370
    15
100
AcDbLine
 10
-448.0907453784
 20
-211.2755867418
 30
0.0
 11
156.9092811457
 21
-211.2755867418
 31
0.0
  0
LINE
  5
316
330
1F
100
AcDbEntity
  8
0
  6
Continuous
 62
     7
370
    15
100
AcDbLine
 10
186.9092525355
 20
-211.2755867418
 30
0.0
 11
229.8952878825
 21
-211.2755867418
 31
0.0
  0
LINE
  5
317
330
1F
100
AcDbEntity
  8
0
  6
Continuous
 62
     7
370
    15
100
AcDbLine
 10
-661.586692799
 20
-211.2755867418
 30
0.0
 11
-624.2474003323
 21
-211.2755867418
 31
0.0
  0
LINE
  5
318
330
1F
100
AcDbEntity
  8
0
  6
Continuous
 62
     7
370
    15
100
AcDbLine
 10
-580.8478726634
 20
-211.2755867418
 30
0.0
 11
-540.1047410072
 21
-211.2755867418
 31
0.0
  0
LINE
  5
319
330
1F
100
AcDbEntity
  8
0
  6
Continuous
 62
     7
370
    15
100
AcDbLine
 10
-540.0866994262
 20
-186.2755882319
 30
0.0
 11
-580.8405450173
 21
-186.2755882319
 31
0.0
  0
LINE
  5
31A
330
1F
100
AcDbEntity
  8
0
  6
Continuous
 62
     7
370
    15
100
AcDbLine
 10
-624.6121286043
 20
-186.2755882319
 30
0.0
 11
-661.586692799
 21
-186.2755882319
 31
0.0
  0
LINE
  5
31B
330
1F
100
AcDbEntity
  8
0
  6
Continuous
 62
     7
370
    15
100
AcDbLine
 10
229.9132884852
 20
-186.2755882319
 30
0.0
 11
185.4092420451
 21
-186.2755882319
 31
0.0
  0
LINE
  5
31C
330
1F
100
AcDbEntity
  8
0
  6
Continuous
 62
     7
370
    15
100
AcDbLine
 10
158.4092320315
 20
-186.2755882319
 30
0.0
 11
-449.5907484182
 21
-186.2755882319
 31
0.0
  0
LINE
  5
31D
330
1F
100
AcDbEntity
  8
0
  6
Continuous
 62
     7
370
    15
100
AcDbLine
 10
-476.5907472559
 20
-186.2755882319
 30
0.0
 11
-525.0866997615
 21
-186.2755882319
 31
0.0
  0
LINE
  5
31E
330
1F
100
AcDbEntity
  8
0
  6
Continuous
 62
     7
370
    15
100
AcDbLine
 10
999.9133290163
 20
-186.2755882319
 30
0.0
 11
244.9132741801
 21
-186.2755882319
 31
0.0
  0
LINE
  5
31F
330
1F
100
AcDbEntity
  8
0
  6
Continuous
 62
     7
370
    15
100
AcDbLine
 10
1136.41332997
 20
-186.2755882319
 30
0.0
 11
1099.1594733111
 21
-186.2755882319
 31
0.0
  0
LINE
  5
320
330
1F
100
AcDbEntity
  8
0
  6
Continuous
 62
     7
370
    15
100
AcDbLine
 10
1055.387848746
 20
-186.2755882319
 30
0.0
 11
1014.9133147112
 21
-186.2755882319
 31
0.0
  0
LINE
  5
321
330
1F
100
AcDbEntity
  8
0
  6
Continuous
 62
     7
370
    15
100
AcDbLine
 10
1136.41332997
 20
-211.2755867418
 30
0.0
 11
1137.4132574908
 21
-210.2755884405
 31
0.0
  0
LINE
  5
322
330
1F
100
AcDbEntity
  8
0
  6
Continuous
 62
     7
370
    15
100
AcDbLine
 10
1137.4132574908
 20
-187.2755883958
 30
0.0
 11
1136.41332997
 21
-186.2755882319
 31
0.0
  0
LINE
  5
323
330
1F
100
AcDbEntity
  8
0
  6
Continuous
 62
     7
370
    15
100
AcDbLine
 10
-540.0366995112
 20
-211.2755867418
 30
0.0
 11
-539.0366998129
 21
-212.2755887684
 31
0.0
  0
LINE
  5
324
330
1F
100
AcDbEntity
  8
0
  6
Continuous
 62
     7
370
    15
100
AcDbLine
 10
-526.1366993748
 20
-212.2755887684
 30
0.0
 11
-525.1366996766
 21
-211.2755867418
 31
0.0
  0
LINE
  5
325
330
1F
100
AcDbEntity
  8
0
  6
Continuous
 62
     7
370
    15
100
AcDbLine
 10
229.9632967822
 20
-211.2755867418
 30
0.0
 11
230.9632839075
 21
-212.2755887684
 31
0.0
  0
LINE
  5
326
330
1F
100
AcDbEntity
  8
0
  6
Continuous
 62
     7
370
    15
100
AcDbLine
 10
243.8632787577
 20
-212.2755887684
 30
0.0
 11
244.8633254877
 21
-211.2755867418
 31
0.0
  0
LINE
  5
327
330
1F
100
AcDbEntity
  8
0
  6
Continuous
 62
     7
370
    15
100
AcDbLine
 10
999.9632777087
 20
-211.2755867418
 30
0.0
 11
1000.9633244387
 21
-212.2755887684
 31
0.0
  0
LINE
  5
328
330
1F
100
AcDbEntity
  8
0
  6
Continuous
 62
     7
370
    15
100
AcDbLine
 10
1013.8633192889
 20
-212.2755887684
 30
0.0
 11
1014.8632468096
 21
-211.2755867418
 31
0.0
  0
LINE
  5
329
330
1F
100
AcDbEntity
  8
0
  6
Continuous
 62
     7
370
    15
100
AcDbLine
 10
229.9132884852
 20
-168.2755885411
 30
0.0
 11
229.9132884852
 21
-186.2755882319
 31
0.0
  0
LINE
  5
32A
330
1F
100
AcDbEntity
  8
0
  6
Continuous
 62
     7
370
    15
100
AcDbLine
 10
244.9132741801
 20
-186.2755882319
 30
0.0
 11
244.9132741801
 21
-168.2755885411
 31
0.0
  0
LINE
  5
32B
330
1F
100
AcDbEntity
  8
0
  6
Continuous
 62
     7
370
    15
100
AcDbLine
 10
999.9133290163
 20
-168.2755885411
 30
0.0
 11
999.9133290163
 21
-186.2755882319
 31
0.0
  0
LINE
  5
32C
330
1F
100
AcDbEntity
  8
0
  6
Continuous
 62
     7
370
    15
100
AcDbLine
 10
1014.9133147112
 20
-186.2755882319
 30
0.0
 11
1014.9133147112
 21
-168.2755885411
 31
0.0
  0
LINE
  5
32D
330
1F
100
AcDbEntity
  8
0
  6
Continuous
 62
     7
370
    15
100
AcDbLine
 10
-540.0866994262
 20
-168.2755885411
 30
0.0
 11
-540.0866994262
 21
-186.2755882319
 31
0.0
  0
LINE
  5
32E
330
1F
100
AcDbEntity
  8
0
  6
Continuous
 62
     7
370
    15
100
AcDbLine
 10
-525.0866997615
 20
-186.2755882319
 30
0.0
 11
-525.0866997615
 21
-168.2755885411
 31
0.0
  0
LINE
  5
32F
330
1F
100
AcDbEntity
  8
0
  6
Continuous
 62
     7
370
    15
100
AcDbLine
 10
207.4133099429
 20
-164.2755883511
 30
0.0
 11
207.4133099429
 21
-166.2755884461
 31
0.0
  0
LINE
  5
330
330
1F
100
AcDbEntity
  8
0
  6
Continuous
 62
     7
370
    15
100
AcDbLine
 10
267.413312327
 20
-166.2755884461
 30
0.0
 11
267.413312327
 21
-164.2755883511
 31
0.0
  0
LINE
  5
331
330
1F
100
AcDbEntity
  8
0
  6
Continuous
 62
     7
370
    15
100
AcDbLine
 10
207.4133099429
 20
-166.2755884461
 30
0.0
 11
222.4132956377
 21
-168.2755885411
 31
0.0
  0
LINE
  5
332
330
1F
100
AcDbEntity
  8
0
  6
Continuous
 62
     7
370
    15
100
AcDbLine
 10
252.4133266322
 20
-168.2755885411
 30
0.0
 11
267.413312327
 21
-166.2755884461
 31
0.0
  0
LINE
  5
333
330
1F
100
AcDbEntity
  8
0
  6
Continuous
 62
     7
370
    15
100
AcDbLine
 10
-562.5866989233
 20
-164.2755883511
 30
0.0
 11
-562.5866989233
 21
-166.2755884461
 31
0.0
  0
LINE
  5
334
330
1F
100
AcDbEntity
  8
0
  6
Continuous
 62
     7
370
    15
100
AcDbLine
 10
-502.5867002644
 20
-166.2755884461
 30
0.0
 11
-502.5867002644
 21
-164.2755883511
 31
0.0
  0
LINE
  5
335
330
1F
100
AcDbEntity
  8
0
  6
Continuous
 62
     7
370
    15
100
AcDbLine
 10
-562.5866989233
 20
-166.2755884461
 30
0.0
 11
-547.5866992586
 21
-168.2755885411
 31
0.0
  0
LINE
  5
336
330
1F
100
AcDbEntity
  8
0
  6
Continuous
 62
     7
370
    15
100
AcDbLine
 10
-517.5866999292
 20
-168.2755885411
 30
0.0
 11
-502.5867002644
 21
-166.2755884461
 31
0.0
  0
LINE
  5
337
330
1F
100
AcDbEntity
  8
0
  6
Continuous
 62
     7
370
    15
100
AcDbLine
 10
977.4132908694
 20
-164.2755883511
 30
0.0
 11
977.4132908694
 21
-166.2755884461
 31
0.0
  0
LINE
  5
338
330
1F
100
AcDbEntity
  8
0
  6
Continuous
 62
     7
370
    15
100
AcDbLine
 10
1037.4133528582
 20
-166.2755884461
 30
0.0
 11
1037.4133528582
 21
-164.2755883511
 31
0.0
  0
LINE
  5
339
330
1F
100
AcDbEntity
  8
0
  6
Continuous
 62
     7
370
    15
100
AcDbLine
 10
977.4132908694
 20
-166.2755884461
 30
0.0
 11
992.4132765643
 21
-168.2755885411
 31
0.0
  0
LINE
  5
33A
330
1F
100
AcDbEntity
  8
0
  6
Continuous
 62
     7
370
    15
100
AcDbLine
 10
1022.413247954
 20
-168.2755885411
 30
0.0
 11
1037.4133528582
 21
-166.2755884461
 31
0.0
  0
LINE
  5
33B
330
1F
100
AcDbEntity
  8
0
  6
Continuous
 62
     7
370
    15
100
AcDbLine
 10
1053.7133158556
 20
-183.7755887535
 30
0.0
 11
1101.1133135668
 21
-183.7755887535
 31
0.0
  0
LINE
  5
33C
330
1F
100
AcDbEntity
  8
0
  6
Continuous
 62
     7
370
    15
100
AcDbLine
 10
1101.4132441393
 20
-184.0755882438
 30
0.0
 11
1053.4132660738
 21
-184.0755882438
 31
0.0
  0
LINE
  5
33D
330
1F
100
AcDbEntity
  8
0
  6
Continuous
 62
     7
370
    15
100
AcDbLine
 10
1099.6619404665
 20
-186.1755884018
 30
0.0
 11
1100.1534403674
 21
-186.2755882319
 31
0.0
  0
LWPOLYLINE
  5
33E
330
1F
100
AcDbEntity
  8
0
  6
Continuous
 62
     7
370
    15
100
AcDbPolyline
 90
       19
 70
   128
 43
0.0
 10
1099.6091307513
 20
-211.2962844547
 10
1099.3770302645
 20
-211.3575282272
 10
1097.4756420962
 20
-210.664832848
 10
1095.8576144091
 20
-209.6549476262
 10
1094.0595806948
 20
-208.2654068943
 10
1092.2197045199
 20
-206.5845261093
 10
1090.3838814608
 20
-204.5611346837
 10
1088.8590754382
 20
-202.3074830648
 10
1088.0082787386
 20
-200.0562566098
 10
1087.9059971682
 20
-198.1564032611
 10
1088.3576811663
 20
-196.3247488018
 10
1089.8951233736
 20
-193.6243138041
 10
1091.6591824404
 20
-191.5389316853
 10
1093.5568751208
 20
-189.718080568
 10
1095.4778136126
 20
-188.1687639978
 10
1097.3166169039
 20
-186.9729513999
 10
1098.5712946764
 20
-186.3926498916
 10
1099.6619404665
 20
-186.1755884018
 10
1099.6619404665
 20
-186.1755884018
  0
SPLINE
  5
33F
330
1F
100
AcDbEntity
  8
0
  6
Continuous
 62
     7
370
    15
100
AcDbSpline
210
0.0
220
0.0
230
1.0
 70
     8
 71
     3
 72
    27
 73
    23
 74
     0
 42
0.000000001
 43
0.00000001
 40
0.0
 40
0.0
 40
0.0
 40
0.0
 40
0.0101269953986768
 40
0.0899659275130957
 40
0.1448258308863516
 40
0.2012678065453524
 40
0.2573067354878537
 40
0.3144339092261424
 40
0.3999238220181486
 40
0.4514044507599838
 40
0.4914904089368083
 40
0.5316888293312079
 40
0.5876368077017785
 40
0.6392888891615512
 40
0.6922205388269899
 40
0.7493297104625238
 40
0.8075971480697596
 40
0.8593322163261854
 40
0.9123843135537276
 40
0.9549976503413801
 40
0.9987741161583522
 40
1.0
 40
1.0
 40
1.0
 40
1.0
 10
1054.831737410205
 20
-186.2755882319207
 30
0.0
 10
1054.875822578069
 20
-186.243185933225
 30
0.0
 10
1055.267465198639
 20
-185.9553312694332
 30
0.0
 10
1056.42134781975
 20
-186.4095418711912
 30
0.0
 10
1058.046752273723
 20
-187.2405608000355
 30
0.0
 10
1059.65668026676
 20
-188.3648495642117
 30
0.0
 10
1061.369745976475
 20
-189.7672004182829
 30
0.0
 10
1063.405566743356
 20
-191.7108208798652
 30
0.0
 10
1065.335767999354
 20
-193.9779288083182
 30
0.0
 10
1066.656529782803
 20
-196.5123739972743
 30
0.0
 10
1067.064408007984
 20
-198.6698520162078
 30
0.0
 10
1066.716776057862
 20
-200.9181111124563
 30
0.0
 10
1065.620417162515
 20
-203.0521393368581
 30
0.0
 10
1064.117339143992
 20
-205.0187887614332
 30
0.0
 10
1062.481152346328
 20
-206.7521910034896
 30
0.0
 10
1060.754735674702
 20
-208.3132232370245
 30
0.0
 10
1059.089659998072
 20
-209.6048765395223
 30
0.0
 10
1057.575189968933
 20
-210.5784689225908
 30
0.0
 10
1056.338638301511
 20
-211.1777011148778
 30
0.0
 10
1055.360276641918
 20
-211.3918095646281
 30
0.0
 10
1054.803595426171
 20
-211.4213731231401
 30
0.0
 10
1054.607482520525
 20
-211.2794527162465
 30
0.0
 10
1054.60214031853
 20
-211.2755867418045
 30
0.0
  0
LINE
  5
340
330
1F
100
AcDbEntity
  8
0
  6
Continuous
 62
     7
370
    15
100
AcDbLine
 10
1053.4132660738
 20
-219.9755887266
 30
0.0
 11
1101.4132441393
 21
-219.9755887266
 31
0.0
  0
LINE
  5
341
330
1F
100
AcDbEntity
  8
0
  6
Continuous
 62
     7
370
    15
100
AcDbLine
 10
1052.4133385531
 20
-212.9705901023
 30
0.0
 11
1052.4133385531
 21
-211.2755867418
 31
0.0
  0
LINE
  5
342
330
1F
100
AcDbEntity
  8
0
  6
Continuous
 62
     7
370
    15
100
AcDbLine
 10
-577.586701382
 20
-211.2755867418
 30
0.0
 11
-577.586701382
 21
-212.9705901023
 31
0.0
  0
LINE
  5
343
330
1F
100
AcDbEntity
  8
0
  6
Continuous
 62
     7
370
    15
100
AcDbLine
 10
1022.9133309237
 20
-211.425589281
 30
0.0
 11
1022.9133309237
 21
-211.2755867418
 31
0.0
  0
LINE
  5
344
330
1F
100
AcDbEntity
  8
0
  6
Continuous
 62
     7
370
    15
100
AcDbLine
 10
-548.0866993406
 20
-211.2755867418
 30
0.0
 11
-548.0866993406
 21
-211.425589281
 31
0.0
  0
LINE
  5
345
330
1F
100
AcDbEntity
  8
0
  6
Continuous
 62
     7
370
    15
100
AcDbLine
 10
-626.5866963752
 20
-223.775589722
 30
0.0
 11
-578.5866996833
 21
-223.775589722
 31
0.0
  0
LINE
  5
346
330
1F
100
AcDbEntity
  8
0
  6
Continuous
 62
     7
370
    15
100
AcDbLine
 10
-578.5866996833
 20
-220.4755897399
 30
0.0
 11
-626.5866963752
 21
-220.4755897399
 31
0.0
  0
LINE
  5
347
330
1F
100
AcDbEntity
  8
0
  6
Continuous
 62
     7
370
    15
100
AcDbLine
 10
-626.3867004403
 20
-220.2755900797
 30
0.0
 11
-578.7866993435
 21
-220.2755900797
 31
0.0
  0
LINE
  5
348
330
1F
100
AcDbEntity
  8
0
  6
Continuous
 62
     7
370
    15
100
AcDbLine
 10
-580.5867000111
 20
-225.7755900499
 30
0.0
 11
-624.5866997727
 21
-225.7755900499
 31
0.0
  0
LINE
  5
349
330
1F
100
AcDbEntity
  8
0
  6
Continuous
 62
     7
370
    15
100
AcDbLine
 10
1085.2949560992
 20
-220.4755897399
 30
0.0
 11
1053.4132660738
 21
-220.4755897399
 31
0.0
  0
LINE
  5
34A
330
1F
100
AcDbEntity
  8
0
  6
Continuous
 62
     7
370
    15
100
AcDbLine
 10
1101.4132441393
 20
-220.4755897399
 30
0.0
 11
1085.2949560992
 21
-220.4755897399
 31
0.0
  0
LINE
  5
34B
330
1F
100
AcDbEntity
  8
0
  6
Continuous
 62
     7
370
    15
100
AcDbLine
 10
1085.2292717806
 20
-220.2755900797
 30
0.0
 11
1101.2133301608
 21
-220.2755900797
 31
0.0
  0
LINE
  5
34C
330
1F
100
AcDbEntity
  8
0
  6
Continuous
 62
     7
370
    15
100
AcDbLine
 10
1053.6132992617
 20
-220.2755900797
 30
0.0
 11
1085.2292717806
 21
-220.2755900797
 31
0.0
  0
LINE
  5
34D
330
1F
100
AcDbEntity
  8
0
  6
Continuous
 62
     7
370
    15
100
AcDbLine
 10
1085.2949560992
 20
-223.775589722
 30
0.0
 11
1101.4132441393
 21
-223.775589722
 31
0.0
  0
LINE
  5
34E
330
1F
100
AcDbEntity
  8
0
  6
Continuous
 62
     7
370
    15
100
AcDbLine
 10
1053.4132660738
 20
-223.775589722
 30
0.0
 11
1085.2949560992
 21
-223.775589722
 31
0.0
  0
LINE
  5
34F
330
1F
100
AcDbEntity
  8
0
  6
Continuous
 62
     7
370
    15
100
AcDbLine
 10
1084.6381129137
 20
-225.7755900499
 30
0.0
 11
1055.4133595339
 21
-225.7755900499
 31
0.0
  0
LINE
  5
350
330
1F
100
AcDbEntity
  8
0
  6
Continuous
 62
     7
370
    15
100
AcDbLine
 10
1099.4132698885
 20
-225.7755900499
 30
0.0
 11
1084.6381129137
 21
-225.7755900499
 31
0.0
  0
LINE
  5
351
330
1F
100
AcDbEntity
  8
0
  6
Continuous
 62
     7
370
    15
100
AcDbLine
 10
-577.9867007025
 20
-186.2755882319
 30
0.0
 11
-577.9867007025
 21
-186.0755885717
 31
0.0
  0
LINE
  5
352
330
1F
100
AcDbEntity
  8
0
  6
Continuous
 62
     7
370
    15
100
AcDbLine
 10
-575.5867010542
 20
-186.2755882319
 30
0.0
 11
-575.5867010542
 21
-185.9755887415
 31
0.0
  0
LINE
  5
353
330
1F
100
AcDbEntity
  8
0
  6
Continuous
 62
     7
370
    15
100
AcDbLine
 10
-572.0867014118
 20
-186.2755882319
 30
0.0
 11
-572.0867014118
 21
-185.9755887415
 31
0.0
  0
LINE
  5
354
330
1F
100
AcDbEntity
  8
0
  6
Continuous
 62
     7
370
    15
100
AcDbLine
 10
1052.8132857195
 20
-186.0755885717
 30
0.0
 11
1052.8132857195
 21
-186.2755882319
 31
0.0
  0
LINE
  5
355
330
1F
100
AcDbEntity
  8
0
  6
Continuous
 62
     7
370
    15
100
AcDbLine
 10
-626.2866987475
 20
-183.7755887535
 30
0.0
 11
-578.8867010363
 21
-183.7755887535
 31
0.0
  0
LINE
  5
356
330
1F
100
AcDbEntity
  8
0
  6
Continuous
 62
     7
370
    15
100
AcDbLine
 10
-578.5866996833
 20
-184.0755882438
 30
0.0
 11
-626.5866963752
 21
-184.0755882438
 31
0.0
  0
LINE
  5
357
330
1F
100
AcDbEntity
  8
0
  6
Continuous
 62
     7
370
    15
100
AcDbLine
 10
-580.3381039389
 20
-186.1755884018
 30
0.0
 11
-579.8466114887
 21
-186.2755882319
 31
0.0
  0
LWPOLYLINE
  5
358
330
1F
100
AcDbEntity
  8
0
  6
Continuous
 62
     7
370
    15
100
AcDbPolyline
 90
       19
 70
   128
 43
0.0
 10
-580.3908801266
 20
-211.2962844547
 10
-580.6229545363
 20
-211.3575282272
 10
-582.5243576058
 20
-210.664832848
 10
-584.1424225458
 20
-209.6549476262
 10
-585.9404003807
 20
-208.2654068943
 10
-587.7803398856
 20
-206.5845261093
 10
-589.6161517688
 20
-204.5611346837
 10
-591.1408795603
 20
-202.3074830648
 10
-591.9916688093
 20
-200.0562566098
 10
-592.0939690062
 20
-198.1564032611
 10
-591.6423669644
 20
-196.3247488018
 10
-590.1048837789
 20
-193.6243138041
 10
-588.3407688328
 20
-191.5389316853
 10
-586.4431283065
 20
-189.718080568
 10
-584.522245694
 20
-188.1687639978
 10
-582.6833716222
 20
-186.9729513999
 10
-581.4287087508
 20
-186.3926498916
 10
-580.3381039389
 20
-186.1755884018
 10
-580.3381039389
 20
-186.1755884018
  0
SPLINE
  5
359
330
1F
100
AcDbEntity
  8
0
  6
Continuous
 62
     7
370
    15
100
AcDbSpline
210
0.0
220
0.0
230
1.0
 70
     8
 71
     3
 72
    27
 73
    23
 74
     0
 42
0.000000001
 43
0.00000001
 40
0.0
 40
0.0
 40
0.0
 40
0.0
 40
0.0101268250549808
 40
0.0899661753638014
 40
0.1448262139659851
 40
0.2012685165632656
 40
0.2573065855526377
 40
0.3144344871249827
 40
0.3999243625335807
 40
0.4514050972752351
 40
0.4914908830975054
 40
0.5316893070527936
 40
0.5876377645266698
 40
0.6392893993948855
 40
0.6922213035374885
 40
0.7493305443242996
 40
0.8075974992863922
 40
0.859332715813489
 40
0.9123850195937961
 40
0.954998140598944
 40
0.9987741571255577
 40
1.0
 40
1.0
 40
1.0
 40
1.0
 10
-625.1682846435141
 20
-186.2755882319207
 30
0.0
 10
-625.1242101127925
 20
-186.2431859968886
 30
0.0
 10
-624.7326543252248
 20
-185.955326263631
 30
0.0
 10
-623.5786231551191
 20
-186.4095403151591
 30
0.0
 10
-621.9532463409544
 20
-187.240565698666
 30
0.0
 10
-620.3432592943994
 20
-188.3648287588176
 30
0.0
 10
-618.6302909472639
 20
-189.7672307619165
 30
0.0
 10
-616.5943706997933
 20
-191.7107955104061
 30
0.0
 10
-614.6642174563907
 20
-193.9779385523447
 30
0.0
 10
-613.3433944805076
 20
-196.5123646598553
 30
0.0
 10
-612.9356011603601
 20
-198.6698567660265
 30
0.0
 10
-613.283208122914
 20
-200.9181240892763
 30
0.0
 10
-614.3796637562784
 20
-203.0521127807675
 30
0.0
 10
-615.8826713610911
 20
-205.0188073378
 30
0.0
 10
-617.5188962869992
 20
-206.7521851512726
 30
0.0
 10
-619.2453185351047
 20
-208.3132150831664
 30
0.0
 10
-620.9103519383218
 20
-209.6048849802802
 30
0.0
 10
-622.4248361049063
 20
-210.578468233622
 30
0.0
 10
-623.6614267378387
 20
-211.1776996809185
 30
0.0
 10
-624.639730484217
 20
-211.3918080667129
 30
0.0
 10
-625.1964572527075
 20
-211.4213763056201
 30
0.0
 10
-625.3924824383572
 20
-211.2794527158672
 30
0.0
 10
-625.3978221305441
 20
-211.2755867418045
 30
0.0
  0
LINE
  5
35A
330
1F
100
AcDbEntity
  8
0
  6
Continuous
 62
     7
370
    15
100
AcDbLine
 10
-626.5866963752
 20
-219.9755887266
 30
0.0
 11
-578.5866996833
 21
-219.9755887266
 31
0.0
  0
LINE
  5
35B
330
1F
100
AcDbEntity
  8
0
  6
Continuous
 62
     7
370
    15
100
AcDbLine
 10
304.409259688
 20
-219.7755890664
 30
0.0
 11
199.7110785357
 21
-219.7755890664
 31
0.0
  0
LINE
  5
35C
330
1F
100
AcDbEntity
  8
0
  6
Continuous
 62
     7
370
    15
100
AcDbLine
 10
144.1074551455
 20
-219.7755890664
 30
0.0
 11
-435.2889417299
 21
-219.7755890664
 31
0.0
  0
LINE
  5
35D
330
1F
100
AcDbEntity
  8
0
  6
Continuous
 62
     7
370
    15
100
AcDbLine
 10
-490.8925539442
 20
-219.7755890664
 30
0.0
 11
-578.5866996833
 21
-219.7755890664
 31
0.0
  0
LINE
  5
35E
330
1F
100
AcDbEntity
  8
0
  6
Continuous
 62
     7
370
    15
100
AcDbLine
 10
304.409259688
 20
-219.7755890664
 30
0.0
 11
304.409259688
 21
-211.2755867418
 31
0.0
  0
LINE
  5
35F
330
1F
100
AcDbEntity
  8
0
  6
Continuous
 62
     7
370
    15
100
AcDbLine
 10
304.409259688
 20
-186.2755882319
 30
0.0
 11
304.409259688
 21
-179.7755880978
 31
0.0
  0
LINE
  5
360
330
1F
100
AcDbEntity
  8
0
  6
Continuous
 62
     7
370
    15
100
AcDbLine
 10
304.409259688
 20
-179.7755880978
 30
0.0
 11
244.9132741801
 21
-179.7755880978
 31
0.0
  0
LINE
  5
361
330
1F
100
AcDbEntity
  8
0
  6
Continuous
 62
     7
370
    15
100
AcDbLine
 10
229.9132884852
 20
-179.7755880978
 30
0.0
 11
-525.0866997615
 21
-179.7755880978
 31
0.0
  0
LINE
  5
362
330
1F
100
AcDbEntity
  8
0
  6
Continuous
 62
     7
370
    15
100
AcDbLine
 10
-540.0866994262
 20
-179.7755880978
 30
0.0
 11
-595.5907462724
 21
-179.7755880978
 31
0.0
  0
LINE
  5
363
330
1F
100
AcDbEntity
  8
0
  6
Continuous
 62
     7
370
    15
100
AcDbLine
 10
-595.5907462724
 20
-183.7755887535
 30
0.0
 11
-595.5907462724
 21
-179.7755880978
 31
0.0
  0
LINE
  5
364
330
1F
100
AcDbEntity
  8
0
  6
Continuous
 62
     7
370
    15
100
AcDbLine
 10
165.9364642016
 20
-184.7755889174
 30
0.0
 11
179.9092234484
 21
-184.7755889174
 31
0.0
  0
LINE
  5
365
330
1F
100
AcDbEntity
  8
0
  6
Continuous
 62
     7
370
    15
100
AcDbLine
 10
163.9092506281
 20
-184.7755889174
 30
0.0
 11
165.9364642016
 21
-184.7755889174
 31
0.0
  0
LINE
  5
366
330
1F
100
AcDbEntity
  8
0
  6
Continuous
 62
     7
370
    15
100
AcDbLine
 10
-469.0635337123
 20
-184.7755889174
 30
0.0
 11
-455.0907446631
 21
-184.7755889174
 31
0.0
  0
LINE
  5
367
330
1F
100
AcDbEntity
  8
0
  6
Continuous
 62
     7
370
    15
100
AcDbLine
 10
-471.0907472857
 20
-184.7755889174
 30
0.0
 11
-469.0635337123
 21
-184.7755889174
 31
0.0
  0
LINE
  5
368
330
1F
100
AcDbEntity
  8
0
  6
Continuous
 62
     7
370
    15
100
AcDbLine
 10
-476.0907462426
 20
-185.7755890813
 30
0.0
 11
-450.0907494315
 21
-185.7755890813
 31
0.0
  0
LINE
  5
369
330
1F
100
AcDbEntity
  8
0
  6
Continuous
 62
     7
370
    15
100
AcDbLine
 10
-477.9509215244
 20
-187.7755875465
 30
0.0
 11
-478.0907465705
 21
-187.7755875465
 31
0.0
  0
LINE
  5
36A
330
1F
100
AcDbEntity
  8
0
  6
Continuous
 62
     7
370
    15
100
AcDbLine
 10
-448.0907453784
 20
-187.7755875465
 30
0.0
 11
-477.9509215244
 21
-187.7755875465
 31
0.0
  0
LINE
  5
36B
330
1F
100
AcDbEntity
  8
0
  6
Continuous
 62
     7
370
    15
100
AcDbLine
 10
-478.0907465705
 20
-188.7755877104
 30
0.0
 11
-448.0907453784
 21
-188.7755877104
 31
0.0
  0
LINE
  5
36C
330
1F
100
AcDbEntity
  8
0
  6
Continuous
 62
     7
370
    15
100
AcDbLine
 10
158.9092553965
 20
-185.7755890813
 30
0.0
 11
184.9092782847
 21
-185.7755890813
 31
0.0
  0
LINE
  5
36D
330
1F
100
AcDbEntity
  8
0
  6
Continuous
 62
     7
370
    15
100
AcDbLine
 10
157.0490540377
 20
-187.7755875465
 30
0.0
 11
156.9092811457
 21
-187.7755875465
 31
0.0
  0
LINE
  5
36E
330
1F
100
AcDbEntity
  8
0
  6
Continuous
 62
     7
370
    15
100
AcDbLine
 10
186.9092525355
 20
-187.7755875465
 30
0.0
 11
157.0490540377
 21
-187.7755875465
 31
0.0
  0
LINE
  5
36F
330
1F
100
AcDbEntity
  8
0
  6
Continuous
 62
     7
370
    15
100
AcDbLine
 10
156.9092811457
 20
-188.7755877104
 30
0.0
 11
186.9092525355
 21
-188.7755877104
 31
0.0
  0
LINE
  5
370
330
1F
100
AcDbEntity
  8
0
  6
Continuous
 62
     7
370
    15
100
AcDbLine
 10
-434.1407476553
 20
-189.6455882814
 30
0.0
 11
-492.0407480188
 21
-189.6455882814
 31
0.0
  0
LINE
  5
371
330
1F
100
AcDbEntity
  8
0
  6
Continuous
 62
     7
370
    15
100
AcDbLine
 10
-434.1407476553
 20
-189.1455891308
 30
0.0
 11
-492.0407480188
 21
-189.1455891308
 31
0.0
  0
LINE
  5
372
330
1F
100
AcDbEntity
  8
0
  6
Continuous
 62
     7
370
    15
100
AcDbLine
 10
-492.0407480188
 20
-208.4055895683
 30
0.0
 11
-434.1407476553
 21
-208.4055895683
 31
0.0
  0
LINE
  5
373
330
1F
100
AcDbEntity
  8
0
  6
Continuous
 62
     7
370
    15
100
AcDbLine
 10
-492.0407480188
 20
-207.905588555
 30
0.0
 11
-434.1407476553
 21
-207.905588555
 31
0.0
  0
LINE
  5
374
330
1F
100
AcDbEntity
  8
0
  6
Continuous
 62
     7
370
    15
100
AcDbLine
 10
142.9592312685
 20
-208.4055895683
 30
0.0
 11
200.859242808
 21
-208.4055895683
 31
0.0
  0
LINE
  5
375
330
1F
100
AcDbEntity
  8
0
  6
Continuous
 62
     7
370
    15
100
AcDbLine
 10
142.9592312685
 20
-207.905588555
 30
0.0
 11
200.859242808
 21
-207.905588555
 31
0.0
  0
LINE
  5
376
330
1F
100
AcDbEntity
  8
0
  6
Continuous
 62
     7
370
    15
100
AcDbLine
 10
200.859242808
 20
-189.1455891308
 30
0.0
 11
142.9592312685
 21
-189.1455891308
 31
0.0
  0
LINE
  5
377
330
1F
100
AcDbEntity
  8
0
  6
Continuous
 62
     7
370
    15
100
AcDbLine
 10
200.859242808
 20
-189.6455882814
 30
0.0
 11
142.9592312685
 21
-189.6455882814
 31
0.0
  0
LINE
  5
378
330
1F
100
AcDbEntity
  8
0
  6
Continuous
 62
     7
370
    15
100
AcDbLine
 10
-457.2179003247
 20
-208.775589126
 30
0.0
 11
-448.3907504567
 21
-208.775589126
 31
0.0
  0
LINE
  5
379
330
1F
100
AcDbEntity
  8
0
  6
Continuous
 62
     7
370
    15
100
AcDbLine
 10
-477.7907452174
 20
-208.775589126
 30
0.0
 11
-457.2179003247
 21
-208.775589126
 31
0.0
  0
LINE
  5
37A
330
1F
100
AcDbEntity
  8
0
  6
Continuous
 62
     7
370
    15
100
AcDbLine
 10
-457.0980428346
 20
-209.0755867537
 30
0.0
 11
-478.0907465705
 21
-209.0755867537
 31
0.0
  0
LINE
  5
37B
330
1F
100
AcDbEntity
  8
0
  6
Continuous
 62
     7
370
    15
100
AcDbLine
 10
-448.0907453784
 20
-209.0755867537
 30
0.0
 11
-457.0980428346
 21
-209.0755867537
 31
0.0
  0
LINE
  5
37C
330
1F
100
AcDbEntity
  8
0
  6
Continuous
 62
     7
370
    15
100
AcDbLine
 10
-457.0980428346
 20
-215.4755870577
 30
0.0
 11
-448.0907453784
 21
-215.4755870577
 31
0.0
  0
LINE
  5
37D
330
1F
100
AcDbEntity
  8
0
  6
Continuous
 62
     7
370
    15
100
AcDbLine
 10
-478.0907465705
 20
-215.4755870577
 30
0.0
 11
-457.0980428346
 21
-215.4755870577
 31
0.0
  0
LINE
  5
37E
330
1F
100
AcDbEntity
  8
0
  6
Continuous
 62
     7
370
    15
100
AcDbLine
 10
177.7821124903
 20
-208.775589126
 30
0.0
 11
186.6092623583
 21
-208.775589126
 31
0.0
  0
LINE
  5
37F
330
1F
100
AcDbEntity
  8
0
  6
Continuous
 62
     7
370
    15
100
AcDbLine
 10
157.2092713229
 20
-208.775589126
 30
0.0
 11
177.7821124903
 21
-208.775589126
 31
0.0
  0
LINE
  5
380
330
1F
100
AcDbEntity
  8
0
  6
Continuous
 62
     7
370
    15
100
AcDbLine
 10
177.901977431
 20
-209.0755867537
 30
0.0
 11
156.9092811457
 21
-209.0755867537
 31
0.0
  0
LINE
  5
381
330
1F
100
AcDbEntity
  8
0
  6
Continuous
 62
     7
370
    15
100
AcDbLine
 10
186.9092525355
 20
-209.0755867537
 30
0.0
 11
177.901977431
 21
-209.0755867537
 31
0.0
  0
LINE
  5
382
330
1F
100
AcDbEntity
  8
0
  6
Continuous
 62
     7
370
    15
100
AcDbLine
 10
177.901977431
 20
-215.4755870577
 30
0.0
 11
186.9092525355
 21
-215.4755870577
 31
0.0
  0
LINE
  5
383
330
1F
100
AcDbEntity
  8
0
  6
Continuous
 62
     7
370
    15
100
AcDbLine
 10
156.9092811457
 20
-215.4755870577
 30
0.0
 11
177.901977431
 21
-215.4755870577
 31
0.0
  0
LINE
  5
384
330
1F
100
AcDbEntity
  8
0
  6
Continuous
 62
     7
370
    15
100
AcDbLine
 10
-405.4506181367
 20
-177.7755887013
 30
0.0
 11
-405.5907486566
 21
-177.7755887013
 31
0.0
  0
LINE
  5
385
330
1F
100
AcDbEntity
  8
0
  6
Continuous
 62
     7
370
    15
100
AcDbLine
 10
-375.5907474645
 20
-177.7755887013
 30
0.0
 11
-405.4506181367
 21
-177.7755887013
 31
0.0
  0
LINE
  5
386
330
1F
100
AcDbEntity
  8
0
  6
Continuous
 62
     7
370
    15
100
AcDbLine
 10
-403.5907446035
 20
-175.7755883735
 30
0.0
 11
-377.5907515176
 21
-175.7755883735
 31
0.0
  0
LINE
  5
387
330
1F
100
AcDbEntity
  8
0
  6
Continuous
 62
     7
370
    15
100
AcDbLine
 10
-520.5907470175
 20
-177.7755887013
 30
0.0
 11
-525.0866997615
 21
-177.7755887013
 31
0.0
  0
LINE
  5
388
330
1F
100
AcDbEntity
  8
0
  6
Continuous
 62
     7
370
    15
100
AcDbLine
 10
-540.0866994262
 20
-177.7755887013
 30
0.0
 11
-550.5907463469
 21
-177.7755887013
 31
0.0
  0
LINE
  5
389
330
1F
100
AcDbEntity
  8
0
  6
Continuous
 62
     7
370
    15
100
AcDbLine
 10
-548.5907460191
 20
-175.7755883735
 30
0.0
 11
-540.0866994262
 21
-175.7755883735
 31
0.0
  0
LINE
  5
38A
330
1F
100
AcDbEntity
  8
0
  6
Continuous
 62
     7
370
    15
100
AcDbLine
 10
-525.0866997615
 20
-175.7755883735
 30
0.0
 11
-522.5907473453
 21
-175.7755883735
 31
0.0
  0
LINE
  5
38B
330
1F
100
AcDbEntity
  8
0
  6
Continuous
 62
     7
370
    15
100
AcDbLine
 10
229.5494021288
 20
-177.7755887013
 30
0.0
 11
229.409271609
 21
-177.7755887013
 31
0.0
  0
LINE
  5
38C
330
1F
100
AcDbEntity
  8
0
  6
Continuous
 62
     7
370
    15
100
AcDbLine
 10
259.4092429987
 20
-177.7755887013
 30
0.0
 11
244.9132741801
 21
-177.7755887013
 31
0.0
  0
LINE
  5
38D
330
1F
100
AcDbEntity
  8
0
  6
Continuous
 62
     7
370
    15
100
AcDbLine
 10
229.9132884852
 20
-177.7755887013
 30
0.0
 11
229.5494021288
 21
-177.7755887013
 31
0.0
  0
LINE
  5
38E
330
1F
100
AcDbEntity
  8
0
  6
Continuous
 62
     7
370
    15
100
AcDbLine
 10
244.9132741801
 20
-175.7755883735
 30
0.0
 11
257.4092687479
 21
-175.7755883735
 31
0.0
  0
LINE
  5
38F
330
1F
100
AcDbEntity
  8
0
  6
Continuous
 62
     7
370
    15
100
AcDbLine
 10
114.4092620722
 20
-177.7755887013
 30
0.0
 11
84.4092310778
 21
-177.7755887013
 31
0.0
  0
LINE
  5
390
330
1F
100
AcDbEntity
  8
0
  6
Continuous
 62
     7
370
    15
100
AcDbLine
 10
86.4092649332
 20
-175.7755883735
 30
0.0
 11
112.4092282168
 21
-175.7755883735
 31
0.0
  0
LINE
  5
391
330
1F
100
AcDbEntity
  8
0
  6
Continuous
 62
     7
370
    15
100
AcDbLine
 10
-478.0907465705
 20
-227.7755903777
 30
0.0
 11
-448.0907453784
 21
-227.7755903777
 31
0.0
  0
LINE
  5
392
330
1F
100
AcDbEntity
  8
0
  6
Continuous
 62
     7
370
    15
100
AcDbLine
 10
-476.0872593709
 20
-229.7755869802
 30
0.0
 11
-476.0907462426
 21
-229.7755869802
 31
0.0
  0
LINE
  5
393
330
1F
100
AcDbEntity
  8
0
  6
Continuous
 62
     7
370
    15
100
AcDbLine
 10
-450.0907494315
 20
-229.7755869802
 30
0.0
 11
-476.0872593709
 21
-229.7755869802
 31
0.0
  0
LINE
  5
394
330
1F
100
AcDbEntity
  8
0
  6
Continuous
 62
     7
370
    15
100
AcDbLine
 10
156.9092811457
 20
-227.7755903777
 30
0.0
 11
186.9092525355
 21
-227.7755903777
 31
0.0
  0
LINE
  5
395
330
1F
100
AcDbEntity
  8
0
  6
Continuous
 62
     7
370
    15
100
AcDbLine
 10
158.9127124659
 20
-229.7755869802
 30
0.0
 11
158.9092553965
 21
-229.7755869802
 31
0.0
  0
LINE
  5
396
330
1F
100
AcDbEntity
  8
0
  6
Continuous
 62
     7
370
    15
100
AcDbLine
 10
184.9092782847
 20
-229.7755869802
 30
0.0
 11
158.9127124659
 21
-229.7755869802
 31
0.0
  0
LINE
  5
397
330
1F
100
AcDbEntity
  8
0
  6
Continuous
 62
     7
370
    15
100
AcDbLine
 10
-448.0907453784
 20
-215.975588071
 30
0.0
 11
-478.0907465705
 21
-215.975588071
 31
0.0
  0
LINE
  5
398
330
1F
100
AcDbEntity
  8
0
  6
Continuous
 62
     7
370
    15
100
AcDbLine
 10
-478.0907465705
 20
-219.5755894061
 30
0.0
 11
-448.0907453784
 21
-219.5755894061
 31
0.0
  0
LINE
  5
399
330
1F
100
AcDbEntity
  8
0
  6
Continuous
 62
     7
370
    15
100
AcDbLine
 10
-477.8907469102
 20
-215.7755884107
 30
0.0
 11
-448.2907487639
 21
-215.7755884107
 31
0.0
  0
LINE
  5
39A
330
1F
100
AcDbEntity
  8
0
  6
Continuous
 62
     7
370
    15
100
AcDbLine
 10
186.9092525355
 20
-215.975588071
 30
0.0
 11
156.9092811457
 21
-215.975588071
 31
0.0
  0
LINE
  5
39B
330
1F
100
AcDbEntity
  8
0
  6
Continuous
 62
     7
370
    15
100
AcDbLine
 10
156.9092811457
 20
-219.5755894061
 30
0.0
 11
186.9092525355
 21
-219.5755894061
 31
0.0
  0
LINE
  5
39C
330
1F
100
AcDbEntity
  8
0
  6
Continuous
 62
     7
370
    15
100
AcDbLine
 10
157.1092547289
 20
-215.7755884107
 30
0.0
 11
186.7092789523
 21
-215.7755884107
 31
0.0
  0
LINE
  5
39D
330
1F
100
AcDbEntity
  8
0
  6
Continuous
 62
     7
370
    15
100
AcDbLine
 10
-376.9028394111
 20
-227.7755903777
 30
0.0
 11
-375.5907474645
 21
-227.7755903777
 31
0.0
  0
LINE
  5
39E
330
1F
100
AcDbEntity
  8
0
  6
Continuous
 62
     7
370
    15
100
AcDbLine
 10
-405.5907486566
 20
-227.7755903777
 30
0.0
 11
-376.9028394111
 21
-227.7755903777
 31
0.0
  0
LINE
  5
39F
330
1F
100
AcDbEntity
  8
0
  6
Continuous
 62
     7
370
    15
100
AcDbLine
 10
-378.7278889307
 20
-229.7755869802
 30
0.0
 11
-403.5907446035
 21
-229.7755869802
 31
0.0
  0
LINE
  5
3A0
330
1F
100
AcDbEntity
  8
0
  6
Continuous
 62
     7
370
    15
100
AcDbLine
 10
-377.5907515176
 20
-229.7755869802
 30
0.0
 11
-378.7278889307
 21
-229.7755869802
 31
0.0
  0
LINE
  5
3A1
330
1F
100
AcDbEntity
  8
0
  6
Continuous
 62
     7
370
    15
100
AcDbLine
 10
-550.5907463469
 20
-227.7755903777
 30
0.0
 11
-520.5907470175
 21
-227.7755903777
 31
0.0
  0
LINE
  5
3A2
330
1F
100
AcDbEntity
  8
0
  6
Continuous
 62
     7
370
    15
100
AcDbLine
 10
-522.5907473453
 20
-229.7755869802
 30
0.0
 11
-548.5907460191
 21
-229.7755869802
 31
0.0
  0
LINE
  5
3A3
330
1F
100
AcDbEntity
  8
0
  6
Continuous
 62
     7
370
    15
100
AcDbLine
 10
258.0971659533
 20
-227.7755903777
 30
0.0
 11
259.4092429987
 21
-227.7755903777
 31
0.0
  0
LINE
  5
3A4
330
1F
100
AcDbEntity
  8
0
  6
Continuous
 62
     7
370
    15
100
AcDbLine
 10
229.409271609
 20
-227.7755903777
 30
0.0
 11
258.0971659533
 21
-227.7755903777
 31
0.0
  0
LINE
  5
3A5
330
1F
100
AcDbEntity
  8
0
  6
Continuous
 62
     7
370
    15
100
AcDbLine
 10
256.2721313349
 20
-229.7755869802
 30
0.0
 11
231.4092458598
 21
-229.7755869802
 31
0.0
  0
LINE
  5
3A6
330
1F
100
AcDbEntity
  8
0
  6
Continuous
 62
     7
370
    15
100
AcDbLine
 10
257.4092687479
 20
-229.7755869802
 30
0.0
 11
256.2721313349
 21
-229.7755869802
 31
0.0
  0
LINE
  5
3A7
330
1F
100
AcDbEntity
  8
0
  6
Continuous
 62
     7
370
    15
100
AcDbLine
 10
84.4092310778
 20
-227.7755903777
 30
0.0
 11
114.4092620722
 21
-227.7755903777
 31
0.0
  0
LINE
  5
3A8
330
1F
100
AcDbEntity
  8
0
  6
Continuous
 62
     7
370
    15
100
AcDbLine
 10
112.4092282168
 20
-229.7755869802
 30
0.0
 11
86.4092649332
 21
-229.7755869802
 31
0.0
  0
LINE
  5
3A9
330
1F
100
AcDbEntity
  8
0
  6
Continuous
 62
     7
370
    15
100
AcDbLine
 10
164.3609346262
 20
-190.7960175302
 30
0.0
 11
200.909251105
 21
-190.7960175302
 31
0.0
  0
LINE
  5
3AA
330
1F
100
AcDbEntity
  8
0
  6
Continuous
 62
     7
370
    15
100
AcDbLine
 10
142.9092825762
 20
-190.7960175302
 30
0.0
 11
164.3609346262
 21
-190.7960175302
 31
0.0
  0
LINE
  5
3AB
330
1F
100
AcDbEntity
  8
0
  6
Continuous
 62
     7
370
    15
100
AcDbLine
 10
142.9092825762
 20
-189.7755878743
 30
0.0
 11
200.909251105
 21
-189.7755878743
 31
0.0
  0
LINE
  5
3AC
330
1F
100
AcDbEntity
  8
0
  6
Continuous
 62
     7
370
    15
100
AcDbLine
 10
200.909251105
 20
-206.8072612163
 30
0.0
 11
142.9092825762
 21
-206.8072612163
 31
0.0
  0
LINE
  5
3AD
330
1F
100
AcDbEntity
  8
0
  6
Continuous
 62
     7
370
    15
100
AcDbLine
 10
142.9092825762
 20
-207.7755870994
 30
0.0
 11
200.909251105
 21
-207.7755870994
 31
0.0
  0
LINE
  5
3AE
330
1F
100
AcDbEntity
  8
0
  6
Continuous
 62
     7
370
    15
100
AcDbLine
 10
-492.0907451399
 20
-189.7755878743
 30
0.0
 11
-434.0907468089
 21
-189.7755878743
 31
0.0
  0
LINE
  5
3AF
330
1F
100
AcDbEntity
  8
0
  6
Continuous
 62
     7
370
    15
100
AcDbLine
 10
-470.6390781888
 20
-190.7960175302
 30
0.0
 11
-434.0907468089
 21
-190.7960175302
 31
0.0
  0
LINE
  5
3B0
330
1F
100
AcDbEntity
  8
0
  6
Continuous
 62
     7
370
    15
100
AcDbLine
 10
-492.0907451399
 20
-190.7960175302
 30
0.0
 11
-470.6390781888
 21
-190.7960175302
 31
0.0
  0
LINE
  5
3B1
330
1F
100
AcDbEntity
  8
0
  6
Continuous
 62
     7
370
    15
100
AcDbLine
 10
-434.0907468089
 20
-206.8072612163
 30
0.0
 11
-492.0907451399
 21
-206.8072612163
 31
0.0
  0
LINE
  5
3B2
330
1F
100
AcDbEntity
  8
0
  6
Continuous
 62
     7
370
    15
100
AcDbLine
 10
-492.0907451399
 20
-207.7755870994
 30
0.0
 11
-434.0907468089
 21
-207.7755870994
 31
0.0
  0
LINE
  5
3B3
330
1F
100
AcDbEntity
  8
0
  6
Continuous
 62
     7
370
    15
100
AcDbLine
 10
151.9092263094
 20
-225.7755900499
 30
0.0
 11
191.9092477671
 21
-225.7755900499
 31
0.0
  0
LINE
  5
3B4
330
1F
100
AcDbEntity
  8
0
  6
Continuous
 62
     7
370
    15
100
AcDbLine
 10
151.9092263094
 20
-219.7755890664
 30
0.0
 11
191.9092477671
 21
-219.7755890664
 31
0.0
  0
LINE
  5
3B5
330
1F
100
AcDbEntity
  8
0
  6
Continuous
 62
     7
370
    15
100
AcDbLine
 10
241.2795962206
 20
-219.7755890664
 30
0.0
 11
241.2795962206
 21
-225.7755900499
 31
0.0
  0
LINE
  5
3B6
330
1F
100
AcDbEntity
  8
0
  6
Continuous
 62
     7
370
    15
100
AcDbLine
 10
191.9092477671
 20
-225.7755900499
 30
0.0
 11
241.2795962206
 21
-225.7755900499
 31
0.0
  0
LINE
  5
3B7
330
1F
100
AcDbEntity
  8
0
  6
Continuous
 62
     7
370
    15
100
AcDbLine
 10
191.9092477671
 20
-219.7755890664
 30
0.0
 11
199.7110785357
 21
-219.7755890664
 31
0.0
  0
LINE
  5
3B8
330
1F
100
AcDbEntity
  8
0
  6
Continuous
 62
     7
370
    15
100
AcDbLine
 10
102.5388778559
 20
-219.7755890664
 30
0.0
 11
102.5388778559
 21
-225.7755900499
 31
0.0
  0
LINE
  5
3B9
330
1F
100
AcDbEntity
  8
0
  6
Continuous
 62
     7
370
    15
100
AcDbLine
 10
102.5388778559
 20
-225.7755900499
 30
0.0
 11
151.9092263094
 21
-225.7755900499
 31
0.0
  0
LINE
  5
3BA
330
1F
100
AcDbEntity
  8
0
  6
Continuous
 62
     7
370
    15
100
AcDbLine
 10
144.1074551455
 20
-219.7755890664
 30
0.0
 11
151.9092263094
 21
-219.7755890664
 31
0.0
  0
LINE
  5
3BB
330
1F
100
AcDbEntity
  8
0
  6
Continuous
 62
     7
370
    15
100
AcDbLine
 10
241.2795962206
 20
-225.7755900499
 30
0.0
 11
264.4092382304
 21
-225.7755900499
 31
0.0
  0
LINE
  5
3BC
330
1F
100
AcDbEntity
  8
0
  6
Continuous
 62
     7
370
    15
100
AcDbLine
 10
79.4092358462
 20
-225.7755900499
 30
0.0
 11
102.5388778559
 21
-225.7755900499
 31
0.0
  0
LINE
  5
3BD
330
1F
100
AcDbEntity
  8
0
  6
Continuous
 62
     7
370
    15
100
AcDbLine
 10
-483.0907455274
 20
-225.7755900499
 30
0.0
 11
-443.0907501467
 21
-225.7755900499
 31
0.0
  0
LINE
  5
3BE
330
1F
100
AcDbEntity
  8
0
  6
Continuous
 62
     7
370
    15
100
AcDbLine
 10
-483.0907455274
 20
-219.7755890664
 30
0.0
 11
-443.0907501467
 21
-219.7755890664
 31
0.0
  0
LINE
  5
3BF
330
1F
100
AcDbEntity
  8
0
  6
Continuous
 62
     7
370
    15
100
AcDbLine
 10
-393.7203942426
 20
-219.7755890664
 30
0.0
 11
-393.7203942426
 21
-225.7755900499
 31
0.0
  0
LINE
  5
3C0
330
1F
100
AcDbEntity
  8
0
  6
Continuous
 62
     7
370
    15
100
AcDbLine
 10
-443.0907501467
 20
-225.7755900499
 30
0.0
 11
-393.7203942426
 21
-225.7755900499
 31
0.0
  0
LINE
  5
3C1
330
1F
100
AcDbEntity
  8
0
  6
Continuous
 62
     7
370
    15
100
AcDbLine
 10
-443.0907501467
 20
-219.7755890664
 30
0.0
 11
-435.2889417299
 21
-219.7755890664
 31
0.0
  0
LINE
  5
3C2
330
1F
100
AcDbEntity
  8
0
  6
Continuous
 62
     7
370
    15
100
AcDbLine
 10
-532.4611009222
 20
-219.7755890664
 30
0.0
 11
-532.4611009222
 21
-225.7755900499
 31
0.0
  0
LINE
  5
3C3
330
1F
100
AcDbEntity
  8
0
  6
Continuous
 62
     7
370
    15
100
AcDbLine
 10
-532.4611009222
 20
-225.7755900499
 30
0.0
 11
-483.0907455274
 21
-225.7755900499
 31
0.0
  0
LINE
  5
3C4
330
1F
100
AcDbEntity
  8
0
  6
Continuous
 62
     7
370
    15
100
AcDbLine
 10
-490.8925539442
 20
-219.7755890664
 30
0.0
 11
-483.0907455274
 21
-219.7755890664
 31
0.0
  0
LINE
  5
3C5
330
1F
100
AcDbEntity
  8
0
  6
Continuous
 62
     7
370
    15
100
AcDbLine
 10
-393.7203942426
 20
-225.7755900499
 30
0.0
 11
-370.5907522329
 21
-225.7755900499
 31
0.0
  0
LINE
  5
3C6
330
1F
100
AcDbEntity
  8
0
  6
Continuous
 62
     7
370
    15
100
AcDbLine
 10
-555.5907471665
 20
-225.7755900499
 30
0.0
 11
-532.4611009222
 21
-225.7755900499
 31
0.0
  0
LINE
  5
3C7
330
1F
100
AcDbEntity
  8
0
  6
Continuous
 62
     7
370
    15
100
AcDbLine
 10
-661.586692799
 20
-186.2755882319
 30
0.0
 11
-661.586692799
 21
-211.2755867418
 31
0.0
  0
LINE
  5
3C8
330
1F
100
AcDbEntity
  8
0
  6
Continuous
 62
     7
370
    15
100
AcDbLine
 10
-662.5866948255
 20
-210.2755884405
 30
0.0
 11
-662.5866948255
 21
-187.2755883958
 31
0.0
  0
LINE
  5
3C9
330
1F
100
AcDbEntity
  8
0
  6
Continuous
 62
     7
370
    15
100
AcDbLine
 10
1136.41332997
 20
-211.2755867418
 30
0.0
 11
1136.41332997
 21
-186.2755882319
 31
0.0
  0
LWPOLYLINE
  5
3CA
330
1F
100
AcDbEntity
  8
0
  6
Continuous
 62
     7
370
    15
100
AcDbPolyline
 90
       13
 70
   128
 43
0.0
 10
-540.1047410072
 20
-211.2564834532
 10
-539.8674302363
 20
-211.1148143884
 10
-539.0108276718
 20
-210.6295729753
 10
-537.5076856092
 20
-209.8870071348
 10
-535.2436641791
 20
-209.0861144241
 10
-533.1640092284
 20
-208.7546045657
 10
-531.0091696541
 20
-208.8620195862
 10
-529.1266145744
 20
-209.3216645297
 10
-527.3024675065
 20
-210.0525813874
 10
-525.7659924776
 20
-210.8490931567
 10
-525.0671592169
 20
-211.2572136101
 10
-525.0366993808
 20
-211.2755867418
 10
-525.0366993808
 20
-211.2755867418
  0
LWPOLYLINE
  5
3CB
330
1F
100
AcDbEntity
  8
0
  6
Continuous
 62
     7
370
    15
100
AcDbPolyline
 90
       13
 70
   128
 43
0.0
 10
229.8952878825
 20
-211.2564834532
 10
230.1325739733
 20
-211.1148143884
 10
230.9891523234
 20
-210.6295729753
 10
232.49232186
 20
-209.8870071348
 10
234.7563446871
 20
-209.0861144241
 10
236.836010348
 20
-208.7546045657
 10
238.9908374659
 20
-208.8620195862
 10
240.8733905665
 20
-209.3216645297
 10
242.6975311152
 20
-210.0525813874
 10
244.2340196482
 20
-210.8490931567
 10
244.9328245036
 20
-211.2572136101
 10
244.963282477
 20
-211.2755867418
 10
244.963282477
 20
-211.2755867418
  0
LWPOLYLINE
  5
3CC
330
1F
100
AcDbEntity
  8
0
  6
Continuous
 62
     7
370
    15
100
AcDbPolyline
 90
       13
 70
   128
 43
0.0
 10
999.8952092043
 20
-211.2564834532
 10
1000.1325548998
 20
-211.1148143884
 10
1000.9891928545
 20
-210.6295729753
 10
1002.4923027865
 20
-209.8870071348
 10
1004.7563256136
 20
-209.0861144241
 10
1006.8359316698
 20
-208.7546045657
 10
1008.9908779971
 20
-208.8620195862
 10
1010.8734310976
 20
-209.3216645297
 10
1012.6975716463
 20
-210.0525813874
 10
1014.2340601794
 20
-210.8490931567
 10
1014.9328650347
 20
-211.2572136101
 10
1014.9632634036
 20
-211.2755867418
 10
1014.9632634036
 20
-211.2755867418
  0
LINE
  5
3CD
330
1F
100
AcDbEntity
  8
0
  6
Continuous
 62
     7
370
    15
100
AcDbLine
 10
1137.4132574908
 20
-187.2755883958
 30
0.0
 11
1137.4132574908
 21
-210.2755884405
 31
0.0
  0
LINE
  5
3CE
330
1F
100
AcDbEntity
  8
0
  6
Continuous
 62
     7
370
    15
100
AcDbLine
 10
-536.9593857416
 20
-211.2755867418
 30
0.0
 11
-525.1366996766
 21
-211.2755867418
 31
0.0
  0
LINE
  5
3CF
330
1F
100
AcDbEntity
  8
0
  6
Continuous
 62
     7
370
    15
100
AcDbLine
 10
-540.0366995112
 20
-211.2755867418
 30
0.0
 11
-536.9593857416
 21
-211.2755867418
 31
0.0
  0
LINE
  5
3D0
330
1F
100
AcDbEntity
  8
0
  6
Continuous
 62
     7
370
    15
100
AcDbLine
 10
-536.3724480943
 20
-212.2755887684
 30
0.0
 11
-539.0366998129
 21
-212.2755887684
 31
0.0
  0
LINE
  5
3D1
330
1F
100
AcDbEntity
  8
0
  6
Continuous
 62
     7
370
    15
100
AcDbLine
 10
-526.1366993748
 20
-212.2755887684
 30
0.0
 11
-536.3724480943
 21
-212.2755887684
 31
0.0
  0
LINE
  5
3D2
330
1F
100
AcDbEntity
  8
0
  6
Continuous
 62
     7
370
    15
100
AcDbLine
 10
233.0406249873
 20
-211.2755867418
 30
0.0
 11
244.8633254877
 21
-211.2755867418
 31
0.0
  0
LINE
  5
3D3
330
1F
100
AcDbEntity
  8
0
  6
Continuous
 62
     7
370
    15
100
AcDbLine
 10
229.9632967822
 20
-211.2755867418
 30
0.0
 11
233.0406249873
 21
-211.2755867418
 31
0.0
  0
LINE
  5
3D4
330
1F
100
AcDbEntity
  8
0
  6
Continuous
 62
     7
370
    15
100
AcDbLine
 10
233.6275519244
 20
-212.2755887684
 30
0.0
 11
230.9632839075
 21
-212.2755887684
 31
0.0
  0
LINE
  5
3D5
330
1F
100
AcDbEntity
  8
0
  6
Continuous
 62
     7
370
    15
100
AcDbLine
 10
243.8632787577
 20
-212.2755887684
 30
0.0
 11
233.6275519244
 21
-212.2755887684
 31
0.0
  0
LINE
  5
3D6
330
1F
100
AcDbEntity
  8
0
  6
Continuous
 62
     7
370
    15
100
AcDbLine
 10
1003.0406655184
 20
-211.2755867418
 30
0.0
 11
1014.8632468096
 21
-211.2755867418
 31
0.0
  0
LINE
  5
3D7
330
1F
100
AcDbEntity
  8
0
  6
Continuous
 62
     7
370
    15
100
AcDbLine
 10
999.9632777087
 20
-211.2755867418
 30
0.0
 11
1003.0406655184
 21
-211.2755867418
 31
0.0
  0
LINE
  5
3D8
330
1F
100
AcDbEntity
  8
0
  6
Continuous
 62
     7
370
    15
100
AcDbLine
 10
1003.6275328509
 20
-212.2755887684
 30
0.0
 11
1000.9633244387
 21
-212.2755887684
 31
0.0
  0
LINE
  5
3D9
330
1F
100
AcDbEntity
  8
0
  6
Continuous
 62
     7
370
    15
100
AcDbLine
 10
1013.8633192889
 20
-212.2755887684
 30
0.0
 11
1003.6275328509
 21
-212.2755887684
 31
0.0
  0
SPLINE
  5
3DA
330
1F
100
AcDbEntity
  8
0
  6
Continuous
 62
     7
370
    15
100
AcDbSpline
210
0.0
220
0.0
230
1.0
 70
     8
 71
     3
 72
    18
 73
    14
 74
     0
 42
0.000000001
 43
0.00000001
 40
0.0
 40
0.0
 40
0.0
 40
0.0
 40
0.0952730811646656
 40
0.1902607915772317
 40
0.2925894874184803
 40
0.4072973173108583
 40
0.4942300127143647
 40
0.5813017283373678
 40
0.6673912561220261
 40
0.7685787623158197
 40
0.8837353312114017
 40
0.9914582796449593
 40
1.0
 40
1.0
 40
1.0
 40
1.0
 10
244.9132741800716
 20
-186.2755882319207
 30
0.0
 10
244.8436316297185
 20
-186.318017664942
 30
0.0
 10
244.7045551288256
 20
-186.4027494424192
 30
0.0
 10
243.6361028863043
 20
-187.0147186919359
 30
0.0
 10
241.989348432861
 20
-187.8256219176604
 30
0.0
 10
239.870713170441
 20
-188.5628751834431
 30
0.0
 10
237.5569991007285
 20
-188.8522300530389
 30
0.0
 10
235.4498293599189
 20
-188.6488127389413
 30
0.0
 10
233.4676109826869
 20
-188.0734573231617
 30
0.0
 10
231.6492531686202
 20
-187.2622881610639
 30
0.0
 10
230.3661970526459
 20
-186.550120555526
 30
0.0
 10
229.8086471570704
 20
-186.2135707342126
 30
0.0
 10
229.9321127051501
 20
-186.2867485737984
 30
0.0
 10
229.9411834589411
 20
-186.2921247955555
 30
0.0
  0
SPLINE
  5
3DB
330
1F
100
AcDbEntity
  8
0
  6
Continuous
 62
     7
370
    15
100
AcDbSpline
210
0.0
220
0.0
230
1.0
 70
     8
 71
     3
 72
    18
 73
    14
 74
     0
 42
0.000000001
 43
0.00000001
 40
0.0
 40
0.0
 40
0.0
 40
0.0
 40
0.0952735649814914
 40
0.1902613833559398
 40
0.292590195502746
 40
0.4072981557706554
 40
0.4942309499808115
 40
0.5813003177153181
 40
0.6673921573985742
 40
0.7685816001023646
 40
0.8837357997659048
 40
0.9914588706360621
 40
1.0
 40
1.0
 40
1.0
 40
1.0
 10
1014.91331471123
 20
-186.2755882319207
 30
0.0
 10
1014.843647363626
 20
-186.3180174492629
 30
0.0
 10
1014.704521616284
 20
-186.4027486292898
 30
0.0
 10
1013.636088429641
 20
-187.0147186101165
 30
0.0
 10
1011.989327753835
 20
-187.8256223271491
 30
0.0
 10
1009.870694989878
 20
-188.5628736144243
 30
0.0
 10
1007.556997941332
 20
-188.8522318943526
 30
0.0
 10
1005.449838217687
 20
-188.6488008742443
 30
0.0
 10
1003.467591792276
 20
-188.0734595183318
 30
0.0
 10
1001.649211118675
 20
-187.2623075270196
 30
0.0
 10
1000.366039850557
 20
-186.5501115747027
 30
0.0
 10
999.8091659383967
 20
-186.2135667177146
 30
0.0
 10
999.9320754651167
 20
-186.2867486252623
 30
0.0
 10
999.94110478081
 20
-186.2921247955555
 30
0.0
  0
SPLINE
  5
3DC
330
1F
100
AcDbEntity
  8
0
  6
Continuous
 62
     7
370
    15
100
AcDbSpline
210
0.0
220
0.0
230
1.0
 70
     8
 71
     3
 72
    18
 73
    14
 74
     0
 42
0.000000001
 43
0.00000001
 40
0.0
 40
0.0
 40
0.0
 40
0.0
 40
0.0952733050524234
 40
0.1902610765331649
 40
0.2925893362938125
 40
0.4072973669743448
 40
0.4942304354442889
 40
0.5813014888387521
 40
0.6673906402670401
 40
0.7685793579120582
 40
0.8837357548043406
 40
0.9914584493202396
 40
1.0
 40
1.0
 40
1.0
 40
1.0
 10
-525.0866997615229
 20
-186.2755882319207
 30
0.0
 10
-525.1563568611513
 20
-186.3180176778479
 30
0.0
 10
-525.2954622984631
 20
-186.4027494088861
 30
0.0
 10
-526.3639105004561
 20
-187.0147162959054
 30
0.0
 10
-528.0106498181374
 20
-187.8256252861103
 30
0.0
 10
-530.1292930426457
 20
-188.5628753101105
 30
0.0
 10
-532.4430054445927
 20
-188.8522296977674
 30
0.0
 10
-534.5501711136676
 20
-188.6488132169543
 30
0.0
 10
-536.5323840399564
 20
-188.0734500407721
 30
0.0
 10
-538.3507587840965
 20
-187.2622957034636
 30
0.0
 10
-539.6338949702473
 20
-186.550120170408
 30
0.0
 10
-540.191206282255
 20
-186.2135697233883
 30
0.0
 10
-540.0678979667246
 20
-186.2867485858582
 30
0.0
 10
-540.0588389114272
 20
-186.2921247955555
 30
0.0
  0
LINE
  5
3DD
330
1F
100
AcDbEntity
  8
0
  6
Continuous
 62
     7
370
    15
100
AcDbLine
 10
207.4133099429
 20
-166.2755884461
 30
0.0
 11
267.413312327
 21
-166.2755884461
 31
0.0
  0
LINE
  5
3DE
330
1F
100
AcDbEntity
  8
0
  6
Continuous
 62
     7
370
    15
100
AcDbLine
 10
267.413312327
 20
-164.2755883511
 30
0.0
 11
207.4133099429
 21
-164.2755883511
 31
0.0
  0
LINE
  5
3DF
330
1F
100
AcDbEntity
  8
0
  6
Continuous
 62
     7
370
    15
100
AcDbLine
 10
252.4133266322
 20
-168.2755885411
 30
0.0
 11
222.4132956377
 21
-168.2755885411
 31
0.0
  0
LINE
  5
3E0
330
1F
100
AcDbEntity
  8
0
  6
Continuous
 62
     7
370
    15
100
AcDbLine
 10
-562.5866989233
 20
-166.2755884461
 30
0.0
 11
-502.5867002644
 21
-166.2755884461
 31
0.0
  0
LINE
  5
3E1
330
1F
100
AcDbEntity
  8
0
  6
Continuous
 62
     7
370
    15
100
AcDbLine
 10
-502.5867002644
 20
-164.2755883511
 30
0.0
 11
-562.5866989233
 21
-164.2755883511
 31
0.0
  0
LINE
  5
3E2
330
1F
100
AcDbEntity
  8
0
  6
Continuous
 62
     7
370
    15
100
AcDbLine
 10
-517.5866999292
 20
-168.2755885411
 30
0.0
 11
-547.5866992586
 21
-168.2755885411
 31
0.0
  0
LINE
  5
3E3
330
1F
100
AcDbEntity
  8
0
  6
Continuous
 62
     7
370
    15
100
AcDbLine
 10
977.4132908694
 20
-166.2755884461
 30
0.0
 11
1037.4133528582
 21
-166.2755884461
 31
0.0
  0
LINE
  5
3E4
330
1F
100
AcDbEntity
  8
0
  6
Continuous
 62
     7
370
    15
100
AcDbLine
 10
1037.4133528582
 20
-164.2755883511
 30
0.0
 11
977.4132908694
 21
-164.2755883511
 31
0.0
  0
LINE
  5
3E5
330
1F
100
AcDbEntity
  8
0
  6
Continuous
 62
     7
370
    15
100
AcDbLine
 10
1022.413247954
 20
-168.2755885411
 30
0.0
 11
992.4132765643
 21
-168.2755885411
 31
0.0
  0
LINE
  5
3E6
330
1F
100
AcDbEntity
  8
0
  6
Continuous
 62
     8
370
    15
100
AcDbLine
 10
1052.7132691256
 20
-211.2755867418
 30
0.0
 11
1052.7132691256
 21
-213.27058773
 31
0.0
  0
LINE
  5
3E7
330
1F
100
AcDbEntity
  8
0
  6
Continuous
 62
     8
370
    15
100
AcDbLine
 10
-577.8866990098
 20
-213.27058773
 30
0.0
 11
-577.8866990098
 21
-211.2755867418
 31
0.0
  0
LINE
  5
3E8
330
1F
100
AcDbEntity
  8
0
  6
Continuous
 62
     8
370
    15
100
AcDbLine
 10
1023.2132614962
 20
-211.2755867418
 30
0.0
 11
1023.2132614962
 21
-211.7255869087
 31
0.0
  0
LINE
  5
3E9
330
1F
100
AcDbEntity
  8
0
  6
Continuous
 62
     8
370
    15
100
AcDbLine
 10
-548.3866988309
 20
-211.7255869087
 30
0.0
 11
-548.3866988309
 21
-211.2755867418
 31
0.0
  0
LINE
  5
3EA
330
1F
100
AcDbEntity
  8
0
  6
Continuous
 62
     8
370
    15
100
AcDbLine
 10
-577.8866990098
 20
-185.9755887415
 30
0.0
 11
-577.8866990098
 21
-186.2755882319
 31
0.0
  0
LINE
  5
3EB
330
1F
100
AcDbEntity
  8
0
  6
Continuous
 62
     8
370
    15
100
AcDbLine
 10
-563.9950281569
 20
-186.2755882319
 30
0.0
 11
-563.9950281569
 21
-185.9755887415
 31
0.0
  0
LINE
  5
3EC
330
1F
100
AcDbEntity
  8
0
  6
Continuous
 62
     8
370
    15
100
AcDbLine
 10
-548.1021509134
 20
-186.1619296249
 30
0.0
 11
-548.1021509134
 21
-186.2755882319
 31
0.0
  0
LINE
  5
3ED
330
1F
100
AcDbEntity
  8
0
  6
Continuous
 62
     8
370
    15
100
AcDbLine
 10
1052.7132691256
 20
-186.2755882319
 30
0.0
 11
1052.7132691256
 21
-185.9755887415
 31
0.0
  0
LINE
  5
3EE
330
1F
100
AcDbEntity
  8
0
  6
Continuous
 62
     8
370
    15
100
AcDbLine
 10
1038.8215721957
 20
-185.9755887415
 30
0.0
 11
1038.8215721957
 21
-186.2755882319
 31
0.0
  0
LINE
  5
3EF
330
1F
100
AcDbEntity
  8
0
  6
Continuous
 62
     8
370
    15
100
AcDbLine
 10
1022.928708922
 20
-186.2755882319
 30
0.0
 11
1022.928708922
 21
-186.1619296249
 31
0.0
  0
LINE
  5
3F0
330
1F
100
AcDbEntity
  8
0
  6
Continuous
 62
     7
370
    15
100
AcDbLine
 10
-868.1186498658
 20
2154.1865849504
 30
0.0
 11
-904.0186503486
 21
2154.1865849504
 31
0.0
  0
LINE
  5
3F1
330
1F
100
AcDbEntity
  8
0
  6
Continuous
 62
     7
370
    15
100
AcDbLine
 10
-904.0186503486
 20
2106.1865854645
 30
0.0
 11
-893.8186490493
 21
2106.1865854645
 31
0.0
  0
LINE
  5
3F2
330
1F
100
AcDbEntity
  8
0
  6
Continuous
 62
     7
370
    15
100
AcDbLine
 10
-867.8186503755
 20
2153.88658546
 30
0.0
 11
-868.1186498658
 21
2154.1865849504
 31
0.0
  0
LINE
  5
3F3
330
1F
100
AcDbEntity
  8
0
  6
Continuous
 62
     7
370
    15
100
AcDbLine
 10
-904.0186503486
 20
2154.1865849504
 30
0.0
 11
-904.3186517017
 21
2153.88658546
 31
0.0
  0
LINE
  5
3F4
330
1F
100
AcDbEntity
  8
0
  6
Continuous
 62
     7
370
    15
100
AcDbLine
 10
-904.3186517017
 20
2106.4865868175
 30
0.0
 11
-904.0186503486
 21
2106.1865854645
 31
0.0
  0
LINE
  5
3F5
330
1F
100
AcDbEntity
  8
0
  6
Continuous
 62
     7
370
    15
100
AcDbLine
 10
-904.5186513619
 20
2106.1865854645
 30
0.0
 11
-904.3186517017
 21
2106.3865851247
 31
0.0
  0
LINE
  5
3F6
330
1F
100
AcDbEntity
  8
0
  6
Continuous
 62
     7
370
    15
100
AcDbLine
 10
-904.3186517017
 20
2153.9865852901
 30
0.0
 11
-904.5186513619
 21
2154.1865849504
 31
0.0
  0
LINE
  5
3F7
330
1F
100
AcDbEntity
  8
0
  6
Continuous
 62
     7
370
    15
100
AcDbLine
 10
-907.818651344
 20
2154.1865849504
 30
0.0
 11
-909.8186516719
 21
2152.1865855539
 31
0.0
  0
LINE
  5
3F8
330
1F
100
AcDbEntity
  8
0
  6
Continuous
 62
     7
370
    15
100
AcDbLine
 10
-909.8186516719
 20
2108.1865857923
 30
0.0
 11
-907.818651344
 21
2106.1865854645
 31
0.0
  0
LINE
  5
3F9
330
1F
100
AcDbEntity
  8
0
  6
Continuous
 62
     7
370
    15
100
AcDbLine
 10
-904.5186513619
 20
2154.1865849504
 30
0.0
 11
-907.818651344
 21
2154.1865849504
 31
0.0
  0
LINE
  5
3FA
330
1F
100
AcDbEntity
  8
0
  6
Continuous
 62
     7
370
    15
100
AcDbLine
 10
-907.818651344
 20
2106.1865854645
 30
0.0
 11
-904.5186513619
 21
2106.1865854645
 31
0.0
  0
LINE
  5
3FB
330
1F
100
AcDbEntity
  8
0
  6
Continuous
 62
     7
370
    15
100
AcDbLine
 10
-871.8186491685
 20
2192.6865856731
 30
0.0
 11
-872.8186493324
 21
2192.6865856731
 31
0.0
  0
LINE
  5
3FC
330
1F
100
AcDbEntity
  8
0
  6
Continuous
 62
     7
370
    15
100
AcDbLine
 10
-872.8186493324
 20
2162.686584481
 30
0.0
 11
-871.8186491685
 21
2162.686584481
 31
0.0
  0
LINE
  5
3FD
330
1F
100
AcDbEntity
  8
0
  6
Continuous
 62
     7
370
    15
100
AcDbLine
 10
-871.8186491685
 20
2162.686584481
 30
0.0
 11
-869.8186507033
 21
2164.6865848088
 31
0.0
  0
LINE
  5
3FE
330
1F
100
AcDbEntity
  8
0
  6
Continuous
 62
     7
370
    15
100
AcDbLine
 10
-869.8186507033
 20
2190.6865853453
 30
0.0
 11
-871.8186491685
 21
2192.6865856731
 31
0.0
  0
LINE
  5
3FF
330
1F
100
AcDbEntity
  8
0
  6
Continuous
 62
     7
370
    15
100
AcDbLine
 10
-872.8186493324
 20
2187.4365862095
 30
0.0
 11
-873.1886507528
 21
2187.4365862095
 31
0.0
  0
LINE
  5
400
330
1F
100
AcDbEntity
  8
0
  6
Continuous
 62
     7
370
    15
100
AcDbLine
 10
-873.1886507528
 20
2167.9365858072
 30
0.0
 11
-872.8186493324
 21
2167.9365858072
 31
0.0
  0
LINE
  5
401
330
1F
100
AcDbEntity
  8
0
  6
Continuous
 62
     7
370
    15
100
AcDbLine
 10
-873.6886499034
 20
2187.266586312
 30
0.0
 11
-873.8186494963
 21
2187.1365848565
 31
0.0
  0
LINE
  5
402
330
1F
100
AcDbEntity
  8
0
  6
Continuous
 62
     7
370
    15
100
AcDbLine
 10
-873.8186494963
 20
2168.2365852976
 30
0.0
 11
-873.6886499034
 21
2168.1065857047
 31
0.0
  0
LINE
  5
403
330
1F
100
AcDbEntity
  8
0
  6
Continuous
 62
     7
370
    15
100
AcDbLine
 10
-891.948650177
 20
2206.6365871215
 30
0.0
 11
-892.4486511903
 21
2206.6365871215
 31
0.0
  0
LINE
  5
404
330
1F
100
AcDbEntity
  8
0
  6
Continuous
 62
     7
370
    15
100
AcDbLine
 10
-873.1886507528
 20
2206.6365871215
 30
0.0
 11
-873.6886499034
 21
2206.6365871215
 31
0.0
  0
LINE
  5
405
330
1F
100
AcDbEntity
  8
0
  6
Continuous
 62
     7
370
    15
100
AcDbLine
 10
-899.5186486797
 20
2162.686584481
 30
0.0
 11
-893.1186483757
 21
2162.686584481
 31
0.0
  0
LINE
  5
406
330
1F
100
AcDbEntity
  8
0
  6
Continuous
 62
     7
370
    15
100
AcDbLine
 10
-893.1186483757
 20
2192.6865856731
 30
0.0
 11
-899.5186486797
 21
2192.6865856731
 31
0.0
  0
LINE
  5
407
330
1F
100
AcDbEntity
  8
0
  6
Continuous
 62
     7
370
    15
100
AcDbLine
 10
-893.1186483757
 20
2162.686584481
 30
0.0
 11
-892.818650748
 21
2162.986585834
 31
0.0
  0
LINE
  5
408
330
1F
100
AcDbEntity
  8
0
  6
Continuous
 62
     7
370
    15
100
AcDbLine
 10
-892.818650748
 20
2192.3865843201
 30
0.0
 11
-893.1186483757
 21
2192.6865856731
 31
0.0
  0
LINE
  5
409
330
1F
100
AcDbEntity
  8
0
  6
Continuous
 62
     7
370
    15
100
AcDbLine
 10
-899.5186486797
 20
2192.6865856731
 30
0.0
 11
-899.8186500327
 21
2192.3865843201
 31
0.0
  0
LINE
  5
40A
330
1F
100
AcDbEntity
  8
0
  6
Continuous
 62
     7
370
    15
100
AcDbLine
 10
-899.8186500327
 20
2162.986585834
 30
0.0
 11
-899.5186486797
 21
2162.686584481
 31
0.0
  0
LINE
  5
40B
330
1F
100
AcDbEntity
  8
0
  6
Continuous
 62
     7
370
    15
100
AcDbLine
 10
-891.948650177
 20
2168.1065857047
 30
0.0
 11
-891.8186487214
 21
2168.2365852976
 31
0.0
  0
LINE
  5
40C
330
1F
100
AcDbEntity
  8
0
  6
Continuous
 62
     7
370
    15
100
AcDbLine
 10
-891.8186487214
 20
2187.1365848565
 30
0.0
 11
-891.948650177
 21
2187.266586312
 31
0.0
  0
LINE
  5
40D
330
1F
100
AcDbEntity
  8
0
  6
Continuous
 62
     7
370
    15
100
AcDbLine
 10
-892.818650748
 20
2167.9365858072
 30
0.0
 11
-892.4486511903
 21
2167.9365858072
 31
0.0
  0
LINE
  5
40E
330
1F
100
AcDbEntity
  8
0
  6
Continuous
 62
     7
370
    15
100
AcDbLine
 10
-892.4486511903
 20
2187.4365862095
 30
0.0
 11
-892.818650748
 21
2187.4365862095
 31
0.0
  0
LINE
  5
40F
330
1F
100
AcDbEntity
  8
0
  6
Continuous
 62
     7
370
    15
100
AcDbLine
 10
-861.8186503233
 20
2033.6865875506
 30
0.0
 11
-859.8186499955
 21
2035.6865841532
 31
0.0
  0
LINE
  5
410
330
1F
100
AcDbEntity
  8
0
  6
Continuous
 62
     7
370
    15
100
AcDbLine
 10
-859.8186499955
 20
2061.6865846896
 30
0.0
 11
-861.8186503233
 21
2063.6865887427
 31
0.0
  0
LINE
  5
411
330
1F
100
AcDbEntity
  8
0
  6
Continuous
 62
     7
370
    15
100
AcDbLine
 10
-861.8186503233
 20
2063.6865887427
 30
0.0
 11
-863.8186497198
 21
2063.6865887427
 31
0.0
  0
LINE
  5
412
330
1F
100
AcDbEntity
  8
0
  6
Continuous
 62
     7
370
    15
100
AcDbLine
 10
-863.8186497198
 20
2033.6865875506
 30
0.0
 11
-861.8186503233
 21
2033.6865875506
 31
0.0
  0
LINE
  5
413
330
1F
100
AcDbEntity
  8
0
  6
Continuous
 62
     7
370
    15
100
AcDbLine
 10
-911.8186519997
 20
2162.686584481
 30
0.0
 11
-909.8186516719
 21
2162.686584481
 31
0.0
  0
LINE
  5
414
330
1F
100
AcDbEntity
  8
0
  6
Continuous
 62
     7
370
    15
100
AcDbLine
 10
-909.8186516719
 20
2192.6865856731
 30
0.0
 11
-911.8186519997
 21
2192.6865856731
 31
0.0
  0
LINE
  5
415
330
1F
100
AcDbEntity
  8
0
  6
Continuous
 62
     7
370
    15
100
AcDbLine
 10
-911.8186519997
 20
2192.6865856731
 30
0.0
 11
-913.8186486022
 21
2190.6865853453
 31
0.0
  0
LINE
  5
416
330
1F
100
AcDbEntity
  8
0
  6
Continuous
 62
     7
370
    15
100
AcDbLine
 10
-913.8186486022
 20
2164.6865848088
 30
0.0
 11
-911.8186519997
 21
2162.686584481
 31
0.0
  0
LINE
  5
417
330
1F
100
AcDbEntity
  8
0
  6
Continuous
 62
     7
370
    15
100
AcDbLine
 10
-903.6186510281
 20
2162.686584481
 30
0.0
 11
-900.018649693
 21
2162.686584481
 31
0.0
  0
LINE
  5
418
330
1F
100
AcDbEntity
  8
0
  6
Continuous
 62
     7
370
    15
100
AcDbLine
 10
-900.018649693
 20
2192.6865856731
 30
0.0
 11
-903.6186510281
 21
2192.6865856731
 31
0.0
  0
LINE
  5
419
330
1F
100
AcDbEntity
  8
0
  6
Continuous
 62
     7
370
    15
100
AcDbLine
 10
-900.018649693
 20
2162.686584481
 30
0.0
 11
-899.8186500327
 21
2162.8865860039
 31
0.0
  0
LINE
  5
41A
330
1F
100
AcDbEntity
  8
0
  6
Continuous
 62
     7
370
    15
100
AcDbLine
 10
-899.8186500327
 20
2192.4865860128
 30
0.0
 11
-900.018649693
 21
2192.6865856731
 31
0.0
  0
LINE
  5
41B
330
1F
100
AcDbEntity
  8
0
  6
Continuous
 62
     7
370
    15
100
AcDbLine
 10
-903.6186510281
 20
2192.6865856731
 30
0.0
 11
-903.8186506884
 21
2192.4865860128
 31
0.0
  0
LINE
  5
41C
330
1F
100
AcDbEntity
  8
0
  6
Continuous
 62
     7
370
    15
100
AcDbLine
 10
-903.8186506884
 20
2162.8865860039
 30
0.0
 11
-903.6186510281
 21
2162.686584481
 31
0.0
  0
LINE
  5
41D
330
1F
100
AcDbEntity
  8
0
  6
Continuous
 62
     7
370
    15
100
AcDbLine
 10
-911.8186519997
 20
2033.6865875506
 30
0.0
 11
-909.8186516719
 21
2033.6865875506
 31
0.0
  0
LINE
  5
41E
330
1F
100
AcDbEntity
  8
0
  6
Continuous
 62
     7
370
    15
100
AcDbLine
 10
-909.8186516719
 20
2063.6865887427
 30
0.0
 11
-911.8186519997
 21
2063.6865887427
 31
0.0
  0
LINE
  5
41F
330
1F
100
AcDbEntity
  8
0
  6
Continuous
 62
     7
370
    15
100
AcDbLine
 10
-911.8186519997
 20
2063.6865887427
 30
0.0
 11
-913.8186486022
 21
2061.6865846896
 31
0.0
  0
LINE
  5
420
330
1F
100
AcDbEntity
  8
0
  6
Continuous
 62
     7
370
    15
100
AcDbLine
 10
-913.8186486022
 20
2035.6865841532
 30
0.0
 11
-911.8186519997
 21
2033.6865875506
 31
0.0
  0
LINE
  5
421
330
1F
100
AcDbEntity
  8
0
  6
Continuous
 62
     7
370
    15
100
AcDbLine
 10
-911.8186519997
 20
2102.6865858221
 30
0.0
 11
-909.8186516719
 21
2102.6865858221
 31
0.0
  0
LINE
  5
422
330
1F
100
AcDbEntity
  8
0
  6
Continuous
 62
     7
370
    15
100
AcDbLine
 10
-909.8186516719
 20
2132.6865851515
 30
0.0
 11
-911.8186519997
 21
2132.6865851515
 31
0.0
  0
LINE
  5
423
330
1F
100
AcDbEntity
  8
0
  6
Continuous
 62
     7
370
    15
100
AcDbLine
 10
-911.8186519997
 20
2132.6865851515
 30
0.0
 11
-913.8186486022
 21
2130.6865848237
 31
0.0
  0
LINE
  5
424
330
1F
100
AcDbEntity
  8
0
  6
Continuous
 62
     7
370
    15
100
AcDbLine
 10
-913.8186486022
 20
2104.6865861499
 30
0.0
 11
-911.8186519997
 21
2102.6865858221
 31
0.0
  0
ARC
  5
425
330
1F
100
AcDbEntity
  8
0
  6
Continuous
 62
     7
370
    15
100
AcDbCircle
 10
-882.8447013964
 20
2216.2865852857
 30
0.0
 40
12.49999999999999
100
AcDbArc
 50
230.1746287392
 51
309.8253712608
  0
LINE
  5
426
330
1F
100
AcDbEntity
  8
0
  6
Continuous
 62
     7
370
    15
100
AcDbLine
 10
-891.0348513679
 20
2148.6865849802
 30
0.0
 11
-890.9426876859
 21
2148.6865849802
 31
0.0
  0
LINE
  5
427
330
1F
100
AcDbEntity
  8
0
  6
Continuous
 62
     7
370
    15
100
AcDbLine
 10
-890.8503228383
 20
2206.6865879679
 30
0.0
 11
-891.8186487214
 21
2206.6865879679
 31
0.0
  0
LINE
  5
428
330
1F
100
AcDbEntity
  8
0
  6
Continuous
 62
     7
370
    15
100
AcDbLine
 10
-874.6946123944
 20
2148.6865849802
 30
0.0
 11
-874.624759476
 21
2148.6865849802
 31
0.0
  0
LINE
  5
429
330
1F
100
AcDbEntity
  8
0
  6
Continuous
 62
     7
370
    15
100
AcDbLine
 10
-873.8186494963
 20
2206.6865879679
 30
0.0
 11
-874.8390791522
 21
2206.6865879679
 31
0.0
  0
LINE
  5
42A
330
1F
100
AcDbEntity
  8
0
  6
Continuous
 62
     7
370
    15
100
AcDbLine
 10
-905.1701450305
 20
2026.1865872526
 30
0.0
 11
-903.8186506884
 21
2026.1865872526
 31
0.0
  0
LINE
  5
42B
330
1F
100
AcDbEntity
  8
0
  6
Continuous
 62
     7
370
    15
100
AcDbLine
 10
-909.8186516719
 20
2026.1865872526
 30
0.0
 11
-908.4476554351
 21
2026.1865872526
 31
0.0
  0
LINE
  5
42C
330
1F
100
AcDbEntity
  8
0
  6
Continuous
 62
     7
370
    15
100
AcDbLine
 10
-903.8186506884
 20
2066.1865863585
 30
0.0
 11
-909.8186516719
 21
2066.1865863585
 31
0.0
  0
LINE
  5
42D
330
1F
100
AcDbEntity
  8
0
  6
Continuous
 62
     7
370
    15
100
AcDbLine
 10
-903.8186506884
 20
2197.68658463
 30
0.0
 11
-909.8186516719
 21
2197.68658463
 31
0.0
  0
ARC
  5
42E
330
1F
100
AcDbEntity
  8
0
  6
Continuous
 62
     7
370
    15
100
AcDbCircle
 10
-879.756434804
 20
51.1865852857
 30
0.0
 40
1.500000000000057
100
AcDbArc
 50
181.0
 51
270.0
  0
ARC
  5
42F
330
1F
100
AcDbEntity
  8
0
  6
Continuous
 62
     7
370
    15
100
AcDbCircle
 10
-887.8808651423
 20
51.1865852857
 30
0.0
 40
1.500000000000057
100
AcDbArc
 50
270.0
 51
359.0
  0
LINE
  5
430
330
1F
100
AcDbEntity
  8
0
  6
Continuous
 62
     7
370
    15
100
AcDbLine
 10
-886.1532644884
 20
64.2127636456
 30
0.0
 11
-886.3810920672
 21
51.1603001141
 31
0.0
  0
LINE
  5
431
330
1F
100
AcDbEntity
  8
0
  6
Continuous
 62
     7
370
    15
100
AcDbLine
 10
-881.2562064783
 20
51.1603001141
 30
0.0
 11
-881.4840377824
 21
64.2127636456
 31
0.0
  0
ARC
  5
432
330
1F
100
AcDbEntity
  8
0
  6
Continuous
 62
     7
370
    15
100
AcDbCircle
 10
-882.9838076322
 20
64.1865852857
 30
0.0
 40
1.500000000000057
100
AcDbArc
 50
1.0
 51
90.0
  0
ARC
  5
433
330
1F
100
AcDbEntity
  8
0
  6
Continuous
 62
     7
370
    15
100
AcDbCircle
 10
-884.6534923141
 20
64.1865852857
 30
0.0
 40
1.500000000000057
100
AcDbArc
 50
90.0
 51
179.0
  0
LINE
  5
434
330
1F
100
AcDbEntity
  8
0
  6
Continuous
 62
     7
370
    15
100
AcDbLine
 10
-892.855955805
 20
2146.636585203
 30
0.0
 11
-892.9129713731
 21
2146.636585203
 31
0.0
  0
LINE
  5
435
330
1F
100
AcDbEntity
  8
0
  6
Continuous
 62
     7
370
    15
100
AcDbLine
 10
-892.9239758806
 20
2131.7365853684
 30
0.0
 11
-892.855955805
 21
2131.7365853684
 31
0.0
  0
LINE
  5
436
330
1F
100
AcDbEntity
  8
0
  6
Continuous
 62
     7
370
    15
100
AcDbLine
 10
-852.3186501631
 20
2146.686585118
 30
0.0
 11
-867.8186503755
 21
2146.686585118
 31
0.0
  0
LINE
  5
437
330
1F
100
AcDbEntity
  8
0
  6
Continuous
 62
     7
370
    15
100
AcDbLine
 10
-867.8186503755
 20
2131.6865854533
 30
0.0
 11
-852.3186501631
 21
2131.6865854533
 31
0.0
  0
LINE
  5
438
330
1F
100
AcDbEntity
  8
0
  6
Continuous
 62
     7
370
    15
100
AcDbLine
 10
-850.3186500681
 20
2169.1865846151
 30
0.0
 11
-852.3186501631
 21
2154.1865849504
 31
0.0
  0
LINE
  5
439
330
1F
100
AcDbEntity
  8
0
  6
Continuous
 62
     7
370
    15
100
AcDbLine
 10
-852.3186501631
 20
2124.1865856209
 30
0.0
 11
-850.3186500681
 21
2109.1865859562
 31
0.0
  0
LINE
  5
43A
330
1F
100
AcDbEntity
  8
0
  6
Continuous
 62
     7
370
    15
100
AcDbLine
 10
-848.3186499731
 20
2169.1865846151
 30
0.0
 11
-850.3186500681
 21
2169.1865846151
 31
0.0
  0
LINE
  5
43B
330
1F
100
AcDbEntity
  8
0
  6
Continuous
 62
     7
370
    15
100
AcDbLine
 10
-850.3186500681
 20
2109.1865859562
 30
0.0
 11
-848.3186499731
 21
2109.1865859562
 31
0.0
  0
SPLINE
  5
43C
330
1F
100
AcDbEntity
  8
0
  6
Continuous
 62
     7
370
    15
100
AcDbSpline
210
0.0
220
0.0
230
1.0
 70
     8
 71
     3
 72
    13
 73
     9
 74
     0
 42
0.000000001
 43
0.00000001
 40
0.0
 40
0.0
 40
0.0
 40
0.0
 40
0.1548573331117191
 40
0.3096532709299101
 40
0.4647170352655892
 40
0.6198021086227032
 40
0.9232983138932043
 40
0.9999999999999999
 40
0.9999999999999999
 40
0.9999999999999999
 40
0.9999999999999999
 10
-870.2186500237909
 20
2139.186585285655
 30
0.0
 10
-870.244981993404
 20
2138.5702206244
 30
0.0
 10
-870.2976354929632
 20
2137.337735668034
 30
0.0
 10
-870.7321383536342
 20
2135.464010760751
 30
0.0
 10
-871.445276860855
 20
2133.639562504408
 30
0.0
 10
-872.7807947110464
 20
2131.42316296823
 30
0.0
 10
-874.2861083907591
 20
2129.583351251285
 30
0.0
 10
-875.7342482139389
 20
2128.862537752689
 30
0.0
 10
-876.0263980881897
 20
2128.717119769147
 30
0.0
  0
LWPOLYLINE
  5
43D
330
1F
100
AcDbEntity
  8
0
  6
Continuous
 62
     7
370
    15
100
AcDbPolyline
 90
       18
 70
   128
 43
0.0
 10
-894.9943730192
 20
2141.9121010331
 10
-894.7078944699
 20
2143.358618916
 10
-893.6816291468
 20
2145.5700755687
 10
-892.3084685163
 20
2147.4753319853
 10
-890.6090283351
 20
2149.0915575632
 10
-888.6041963057
 20
2150.379773193
 10
-886.3505446868
 20
2151.2814480448
 10
-884.0993182318
 20
2151.7213331172
 10
-882.1994648831
 20
2151.7713619032
 10
-880.3678104238
 20
2151.5459296861
 10
-877.6673754261
 20
2150.6854705149
 10
-875.554578896
 20
2149.4842990869
 10
-873.76114219
 20
2147.9456694433
 10
-872.1901332544
 20
2145.9534396054
 10
-871.0160130219
 20
2143.5976801076
 10
-870.4301161276
 20
2141.4774374207
 10
-870.2186500238
 20
2139.1865852857
 10
-870.2186500238
 20
2139.1865852857
  0
LINE
  5
43E
330
1F
100
AcDbEntity
  8
0
  6
Continuous
 62
     7
370
    15
100
AcDbLine
 10
-904.0186503486
 20
2130.1865856731
 30
0.0
 11
-904.0186503486
 21
2106.1865854645
 31
0.0
  0
LINE
  5
43F
330
1F
100
AcDbEntity
  8
0
  6
Continuous
 62
     7
370
    15
100
AcDbLine
 10
-904.0186503486
 20
2154.1865849504
 30
0.0
 11
-904.0186503486
 21
2130.1865856731
 31
0.0
  0
LINE
  5
440
330
1F
100
AcDbEntity
  8
0
  6
Continuous
 62
     7
370
    15
100
AcDbLine
 10
-868.1186498658
 20
2108.1865857923
 30
0.0
 11
-868.1186498658
 21
2154.1865849504
 31
0.0
  0
LINE
  5
441
330
1F
100
AcDbEntity
  8
0
  6
Continuous
 62
     7
370
    15
100
AcDbLine
 10
-893.8186490493
 20
2108.1865857923
 30
0.0
 11
-868.1186498658
 21
2108.1865857923
 31
0.0
  0
LINE
  5
442
330
1F
100
AcDbEntity
  8
0
  6
Continuous
 62
     7
370
    15
100
AcDbLine
 10
-893.8186490493
 20
2108.1865857923
 30
0.0
 11
-893.8186490493
 21
2106.1865854645
 31
0.0
  0
LINE
  5
443
330
1F
100
AcDbEntity
  8
0
  6
Continuous
 62
     7
370
    15
100
AcDbLine
 10
-867.8186503755
 20
2153.88658546
 30
0.0
 11
-867.8186503755
 21
2108.1865857923
 31
0.0
  0
LINE
  5
444
330
1F
100
AcDbEntity
  8
0
  6
Continuous
 62
     7
370
    15
100
AcDbLine
 10
-867.8186503755
 20
2108.1865857923
 30
0.0
 11
-868.1186498658
 21
2108.1865857923
 31
0.0
  0
LINE
  5
445
330
1F
100
AcDbEntity
  8
0
  6
Continuous
 62
     7
370
    15
100
AcDbLine
 10
-904.5186513619
 20
2152.8555024052
 30
0.0
 11
-904.5186513619
 21
2154.1865849504
 31
0.0
  0
LINE
  5
446
330
1F
100
AcDbEntity
  8
0
  6
Continuous
 62
     7
370
    15
100
AcDbLine
 10
-904.5186513619
 20
2106.1865854645
 30
0.0
 11
-904.5186513619
 21
2152.8555024052
 31
0.0
  0
LINE
  5
447
330
1F
100
AcDbEntity
  8
0
  6
Continuous
 62
     7
370
    15
100
AcDbLine
 10
-904.3186517017
 20
2152.6665947968
 30
0.0
 11
-904.3186517017
 21
2106.3865851247
 31
0.0
  0
LINE
  5
448
330
1F
100
AcDbEntity
  8
0
  6
Continuous
 62
     7
370
    15
100
AcDbLine
 10
-904.3186517017
 20
2153.9865852901
 30
0.0
 11
-904.3186517017
 21
2152.6665947968
 31
0.0
  0
LINE
  5
449
330
1F
100
AcDbEntity
  8
0
  6
Continuous
 62
     7
370
    15
100
AcDbLine
 10
-909.8186516719
 20
2150.9664253899
 30
0.0
 11
-909.8186516719
 21
2152.1865855539
 31
0.0
  0
LINE
  5
44A
330
1F
100
AcDbEntity
  8
0
  6
Continuous
 62
     7
370
    15
100
AcDbLine
 10
-909.8186516719
 20
2108.1865857923
 30
0.0
 11
-909.8186516719
 21
2150.9664253899
 31
0.0
  0
LINE
  5
44B
330
1F
100
AcDbEntity
  8
0
  6
Continuous
 62
     7
370
    15
100
AcDbLine
 10
-907.818651344
 20
2152.8555024052
 30
0.0
 11
-907.818651344
 21
2106.1865854645
 31
0.0
  0
LINE
  5
44C
330
1F
100
AcDbEntity
  8
0
  6
Continuous
 62
     7
370
    15
100
AcDbLine
 10
-907.818651344
 20
2154.1865849504
 30
0.0
 11
-907.818651344
 21
2152.8555024052
 31
0.0
  0
LINE
  5
44D
330
1F
100
AcDbEntity
  8
0
  6
Continuous
 62
     7
370
    15
100
AcDbLine
 10
-903.8186506884
 20
53.6865833783
 30
0.0
 11
-903.8186506884
 21
2103.6865841234
 31
0.0
  0
LINE
  5
44E
330
1F
100
AcDbEntity
  8
0
  6
Continuous
 62
     7
370
    15
100
AcDbLine
 10
-903.8186506884
 20
2103.6865841234
 30
0.0
 11
-863.8186497198
 21
2103.6865841234
 31
0.0
  0
LINE
  5
44F
330
1F
100
AcDbEntity
  8
0
  6
Continuous
 62
     7
370
    15
100
AcDbLine
 10
-863.8186497198
 20
53.6865833783
 30
0.0
 11
-863.8186497198
 21
2103.6865841234
 31
0.0
  0
LINE
  5
450
330
1F
100
AcDbEntity
  8
0
  6
Continuous
 62
     7
370
    15
100
AcDbLine
 10
-880.318651493
 20
53.6865833783
 30
0.0
 11
-863.8186497198
 21
53.6865833783
 31
0.0
  0
LINE
  5
451
330
1F
100
AcDbEntity
  8
0
  6
Continuous
 62
     7
370
    15
100
AcDbLine
 10
-880.318651493
 20
73.6865643048
 30
0.0
 11
-880.318651493
 21
53.6865833783
 31
0.0
  0
LINE
  5
452
330
1F
100
AcDbEntity
  8
0
  6
Continuous
 62
     7
370
    15
100
AcDbLine
 10
-880.318651493
 20
73.6865643048
 30
0.0
 11
-887.3186507778
 21
73.6865643048
 31
0.0
  0
LINE
  5
453
330
1F
100
AcDbEntity
  8
0
  6
Continuous
 62
     7
370
    15
100
AcDbLine
 10
-887.3186507778
 20
73.6865643048
 30
0.0
 11
-887.3186507778
 21
53.6865833783
 31
0.0
  0
LINE
  5
454
330
1F
100
AcDbEntity
  8
0
  6
Continuous
 62
     7
370
    15
100
AcDbLine
 10
-903.8186506884
 20
53.6865833783
 30
0.0
 11
-887.3186507778
 21
53.6865833783
 31
0.0
  0
LINE
  5
455
330
1F
100
AcDbEntity
  8
0
  6
Continuous
 62
     7
370
    15
100
AcDbLine
 10
-871.8186491685
 20
2162.686584481
 30
0.0
 11
-871.8186491685
 21
2192.6865856731
 31
0.0
  0
LINE
  5
456
330
1F
100
AcDbEntity
  8
0
  6
Continuous
 62
     7
370
    15
100
AcDbLine
 10
-872.8186493324
 20
2175.6432484472
 30
0.0
 11
-872.8186493324
 21
2162.686584481
 31
0.0
  0
LINE
  5
457
330
1F
100
AcDbEntity
  8
0
  6
Continuous
 62
     7
370
    15
100
AcDbLine
 10
-872.8186493324
 20
2192.6865856731
 30
0.0
 11
-872.8186493324
 21
2175.6432484472
 31
0.0
  0
LINE
  5
458
330
1F
100
AcDbEntity
  8
0
  6
Continuous
 62
     7
370
    15
100
AcDbLine
 10
-869.8186507033
 20
2190.6865853453
 30
0.0
 11
-869.8186507033
 21
2164.6865848088
 31
0.0
  0
LINE
  5
459
330
1F
100
AcDbEntity
  8
0
  6
Continuous
 62
     7
370
    15
100
AcDbLine
 10
-891.948650177
 20
2206.6365871215
 30
0.0
 11
-891.948650177
 21
2154.1865849504
 31
0.0
  0
LINE
  5
45A
330
1F
100
AcDbEntity
  8
0
  6
Continuous
 62
     7
370
    15
100
AcDbLine
 10
-892.4486511903
 20
2206.6365871215
 30
0.0
 11
-892.4486511903
 21
2154.1865849504
 31
0.0
  0
LINE
  5
45B
330
1F
100
AcDbEntity
  8
0
  6
Continuous
 62
     7
370
    15
100
AcDbLine
 10
-873.6886499034
 20
2154.1865849504
 30
0.0
 11
-873.6886499034
 21
2206.6365871215
 31
0.0
  0
LINE
  5
45C
330
1F
100
AcDbEntity
  8
0
  6
Continuous
 62
     7
370
    15
100
AcDbLine
 10
-873.1886507528
 20
2154.1865849504
 30
0.0
 11
-873.1886507528
 21
2206.6365871215
 31
0.0
  0
LINE
  5
45D
330
1F
100
AcDbEntity
  8
0
  6
Continuous
 62
     7
370
    15
100
AcDbLine
 10
-893.1186483757
 20
2191.437495836
 30
0.0
 11
-893.1186483757
 21
2192.6865856731
 31
0.0
  0
LINE
  5
45E
330
1F
100
AcDbEntity
  8
0
  6
Continuous
 62
     7
370
    15
100
AcDbLine
 10
-893.1186483757
 20
2162.686584481
 30
0.0
 11
-893.1186483757
 21
2191.437495836
 31
0.0
  0
LINE
  5
45F
330
1F
100
AcDbEntity
  8
0
  6
Continuous
 62
     7
370
    15
100
AcDbLine
 10
-899.5186486797
 20
2191.437495836
 30
0.0
 11
-899.5186486797
 21
2162.686584481
 31
0.0
  0
LINE
  5
460
330
1F
100
AcDbEntity
  8
0
  6
Continuous
 62
     7
370
    15
100
AcDbLine
 10
-899.5186486797
 20
2192.6865856731
 30
0.0
 11
-899.5186486797
 21
2191.437495836
 31
0.0
  0
LINE
  5
461
330
1F
100
AcDbEntity
  8
0
  6
Continuous
 62
     7
370
    15
100
AcDbLine
 10
-892.818650748
 20
2191.1624762797
 30
0.0
 11
-892.818650748
 21
2162.986585834
 31
0.0
  0
LINE
  5
462
330
1F
100
AcDbEntity
  8
0
  6
Continuous
 62
     7
370
    15
100
AcDbLine
 10
-892.818650748
 20
2192.3865843201
 30
0.0
 11
-892.818650748
 21
2191.1624762797
 31
0.0
  0
LINE
  5
463
330
1F
100
AcDbEntity
  8
0
  6
Continuous
 62
     7
370
    15
100
AcDbLine
 10
-861.8186503233
 20
2033.6865875506
 30
0.0
 11
-861.8186503233
 21
2063.6865887427
 31
0.0
  0
LINE
  5
464
330
1F
100
AcDbEntity
  8
0
  6
Continuous
 62
     7
370
    15
100
AcDbLine
 10
-859.8186499955
 20
2061.6865846896
 30
0.0
 11
-859.8186499955
 21
2035.6865841532
 31
0.0
  0
LINE
  5
465
330
1F
100
AcDbEntity
  8
0
  6
Continuous
 62
     7
370
    15
100
AcDbLine
 10
-911.8186519997
 20
2192.6865856731
 30
0.0
 11
-911.8186519997
 21
2162.686584481
 31
0.0
  0
LINE
  5
466
330
1F
100
AcDbEntity
  8
0
  6
Continuous
 62
     7
370
    15
100
AcDbLine
 10
-913.8186486022
 20
2164.6865848088
 30
0.0
 11
-913.8186486022
 21
2190.6865853453
 31
0.0
  0
LINE
  5
467
330
1F
100
AcDbEntity
  8
0
  6
Continuous
 62
     7
370
    15
100
AcDbLine
 10
-900.018649693
 20
2162.686584481
 30
0.0
 11
-900.018649693
 21
2192.6865856731
 31
0.0
  0
LINE
  5
468
330
1F
100
AcDbEntity
  8
0
  6
Continuous
 62
     7
370
    15
100
AcDbLine
 10
-903.6186510281
 20
2192.6865856731
 30
0.0
 11
-903.6186510281
 21
2162.686584481
 31
0.0
  0
LINE
  5
469
330
1F
100
AcDbEntity
  8
0
  6
Continuous
 62
     7
370
    15
100
AcDbLine
 10
-899.8186500327
 20
2192.4865860128
 30
0.0
 11
-899.8186500327
 21
2162.8865860039
 31
0.0
  0
LINE
  5
46A
330
1F
100
AcDbEntity
  8
0
  6
Continuous
 62
     7
370
    15
100
AcDbLine
 10
-911.8186519997
 20
2054.8218283439
 30
0.0
 11
-911.8186519997
 21
2033.6865875506
 31
0.0
  0
LINE
  5
46B
330
1F
100
AcDbEntity
  8
0
  6
Continuous
 62
     7
370
    15
100
AcDbLine
 10
-911.8186519997
 20
2063.6865887427
 30
0.0
 11
-911.8186519997
 21
2054.8218283439
 31
0.0
  0
LINE
  5
46C
330
1F
100
AcDbEntity
  8
0
  6
Continuous
 62
     7
370
    15
100
AcDbLine
 10
-913.8186486022
 20
2054.0037918472
 30
0.0
 11
-913.8186486022
 21
2061.6865846896
 31
0.0
  0
LINE
  5
46D
330
1F
100
AcDbEntity
  8
0
  6
Continuous
 62
     7
370
    15
100
AcDbLine
 10
-913.8186486022
 20
2035.6865841532
 30
0.0
 11
-913.8186486022
 21
2054.0037918472
 31
0.0
  0
LINE
  5
46E
330
1F
100
AcDbEntity
  8
0
  6
Continuous
 62
     7
370
    15
100
AcDbLine
 10
-911.8186519997
 20
2132.6865851515
 30
0.0
 11
-911.8186519997
 21
2102.6865858221
 31
0.0
  0
LINE
  5
46F
330
1F
100
AcDbEntity
  8
0
  6
Continuous
 62
     7
370
    15
100
AcDbLine
 10
-913.8186486022
 20
2104.6865861499
 30
0.0
 11
-913.8186486022
 21
2130.6865848237
 31
0.0
  0
LINE
  5
470
330
1F
100
AcDbEntity
  8
0
  6
Continuous
 62
     7
370
    15
100
AcDbLine
 10
-890.8503228383
 20
2154.1865849504
 30
0.0
 11
-890.8503228383
 21
2206.6865879679
 31
0.0
  0
LINE
  5
471
330
1F
100
AcDbEntity
  8
0
  6
Continuous
 62
     7
370
    15
100
AcDbLine
 10
-874.8390791522
 20
2206.6865879679
 30
0.0
 11
-874.8390791522
 21
2154.1865849504
 31
0.0
  0
LINE
  5
472
330
1F
100
AcDbEntity
  8
0
  6
Continuous
 62
     7
370
    15
100
AcDbLine
 10
-891.8186487214
 20
2206.6865879679
 30
0.0
 11
-891.8186487214
 21
2154.1865849504
 31
0.0
  0
LINE
  5
473
330
1F
100
AcDbEntity
  8
0
  6
Continuous
 62
     7
370
    15
100
AcDbLine
 10
-873.8186494963
 20
2206.6865879679
 30
0.0
 11
-873.8186494963
 21
2154.1865849504
 31
0.0
  0
LINE
  5
474
330
1F
100
AcDbEntity
  8
0
  6
Continuous
 62
     7
370
    15
100
AcDbLine
 10
-905.3186500029
 20
2026.1865872526
 30
0.0
 11
-908.318648632
 21
2026.1865872526
 31
0.0
  0
LINE
  5
475
330
1F
100
AcDbEntity
  8
0
  6
Continuous
 62
     7
370
    15
100
AcDbLine
 10
-909.8186516719
 20
2066.1865863585
 30
0.0
 11
-909.8186516719
 21
2026.1865872526
 31
0.0
  0
SPLINE
  5
476
330
1F
100
AcDbEntity
  8
0
  6
Continuous
 62
     7
370
    15
100
AcDbSpline
210
0.0
220
0.0
230
1.0
 70
     8
 71
     3
 72
    17
 73
    13
 74
     0
 42
0.000000001
 43
0.00000001
 40
0.0
 40
0.0
 40
0.0
 40
0.0
 40
0.0365428265663427
 40
0.1435315462920475
 40
0.2506544767146395
 40
0.3580929220104959
 40
0.4655433064420361
 40
0.572676600895166
 40
0.6796608956508166
 40
0.7869010386350681
 40
0.8943962279287329
 40
1.0
 40
1.0
 40
1.0
 40
1.0
 10
-908.4476554350582
 20
2026.188300886146
 30
0.0
 10
-908.4534285394626
 20
2026.187830447478
 30
0.0
 10
-908.4761039228397
 20
2026.185982676087
 30
0.0
 10
-908.3240957795873
 20
2026.198497688036
 30
0.0
 10
-908.0074250626064
 20
2026.220616007328
 30
0.0
 10
-907.5439033913457
 20
2026.243782172914
 30
0.0
 10
-907.0015655728367
 20
2026.256566324062
 30
0.0
 10
-906.438666409931
 20
2026.253697328464
 30
0.0
 10
-905.9183652221552
 20
2026.236305388085
 30
0.0
 10
-905.5024141259668
 20
2026.21239247688
 30
0.0
 10
-905.2216667637628
 20
2026.191074982538
 30
0.0
 10
-905.1872170189058
 20
2026.188153993436
 30
0.0
 10
-905.1701450304714
 20
2026.186706461898
 30
0.0
  0
LINE
  5
477
330
1F
100
AcDbEntity
  8
0
  6
Continuous
 62
     7
370
    15
100
AcDbLine
 10
-903.8186506884
 20
2163.5423134649
 30
0.0
 11
-909.8186516719
 21
2163.5423134649
 31
0.0
  0
LINE
  5
478
330
1F
100
AcDbEntity
  8
0
  6
Continuous
 62
     7
370
    15
100
AcDbLine
 10
-903.8186506884
 20
2163.5423134649
 30
0.0
 11
-903.8186506884
 21
2154.1865849504
 31
0.0
  0
LINE
  5
479
330
1F
100
AcDbEntity
  8
0
  6
Continuous
 62
     7
370
    15
100
AcDbLine
 10
-903.8186506884
 20
2106.1865854645
 30
0.0
 11
-903.8186506884
 21
2103.6865841234
 31
0.0
  0
LINE
  5
47A
330
1F
100
AcDbEntity
  8
0
  6
Continuous
 62
     7
370
    15
100
AcDbLine
 10
-909.8186516719
 20
2163.5423134649
 30
0.0
 11
-909.8186516719
 21
2152.1865855539
 31
0.0
  0
LINE
  5
47B
330
1F
100
AcDbEntity
  8
0
  6
Continuous
 62
     7
370
    15
100
AcDbLine
 10
-909.8186516719
 20
2108.1865857923
 30
0.0
 11
-909.8186516719
 21
2066.1865863585
 31
0.0
  0
LINE
  5
47C
330
1F
100
AcDbEntity
  8
0
  6
Continuous
 62
     7
370
    15
100
AcDbLine
 10
-903.8186506884
 20
2197.68658463
 30
0.0
 11
-903.8186506884
 21
2163.5423134649
 31
0.0
  0
LINE
  5
47D
330
1F
100
AcDbEntity
  8
0
  6
Continuous
 62
     7
370
    15
100
AcDbLine
 10
-909.8186516719
 20
2197.68658463
 30
0.0
 11
-909.8186516719
 21
2163.5423134649
 31
0.0
  0
CIRCLE
  5
47E
330
1F
100
AcDbEntity
  8
0
  6
Continuous
 62
     7
370
    15
100
AcDbCircle
 10
-882.8186499731
 20
2139.1865852857
 30
0.0
 40
11.50000000000011
  0
CIRCLE
  5
47F
330
1F
100
AcDbEntity
  8
0
  6
Continuous
 62
     7
370
    15
100
AcDbCircle
 10
-882.8186499731
 20
2139.1865852857
 30
0.0
 40
12.5
  0
LINE
  5
480
330
1F
100
AcDbEntity
  8
0
  6
Continuous
 62
     7
370
    15
100
AcDbLine
 10
-872.3186501817
 20
45.6866863751
 30
0.0
 11
-872.3186501817
 21
49.6866348767
 31
0.0
  0
LINE
  5
481
330
1F
100
AcDbEntity
  8
0
  6
Continuous
 62
     7
370
    15
100
AcDbLine
 10
-895.3186483638
 20
49.6866348767
 30
0.0
 11
-895.3186483638
 21
45.6866863751
 31
0.0
  0
LINE
  5
482
330
1F
100
AcDbEntity
  8
0
  6
Continuous
 62
     7
370
    15
100
AcDbLine
 10
-895.3186483638
 20
49.6866348767
 30
0.0
 11
-872.3186501817
 21
49.6866348767
 31
0.0
  0
LINE
  5
483
330
1F
100
AcDbEntity
  8
0
  6
Continuous
 62
     7
370
    15
100
AcDbLine
 10
-895.3186483638
 20
45.6866863751
 30
0.0
 11
-872.3186501817
 21
45.6866863751
 31
0.0
  0
LINE
  5
484
330
1F
100
AcDbEntity
  8
0
  6
Continuous
 62
     7
370
    15
100
AcDbLine
 10
-869.8186507033
 20
49.6866348767
 30
0.0
 11
-869.8186507033
 21
45.6866863751
 31
0.0
  0
LINE
  5
485
330
1F
100
AcDbEntity
  8
0
  6
Continuous
 62
     7
370
    15
100
AcDbLine
 10
-872.3186501817
 20
49.6866348767
 30
0.0
 11
-869.8186507033
 21
49.6866348767
 31
0.0
  0
LINE
  5
486
330
1F
100
AcDbEntity
  8
0
  6
Continuous
 62
     7
370
    15
100
AcDbLine
 10
-869.8186507033
 20
45.6866863751
 30
0.0
 11
-872.3186501817
 21
45.6866863751
 31
0.0
  0
LINE
  5
487
330
1F
100
AcDbEntity
  8
0
  6
Continuous
 62
     7
370
    15
100
AcDbLine
 10
-897.8186497049
 20
45.6866863751
 30
0.0
 11
-897.8186497049
 21
49.6866348767
 31
0.0
  0
LINE
  5
488
330
1F
100
AcDbEntity
  8
0
  6
Continuous
 62
     7
370
    15
100
AcDbLine
 10
-897.8186497049
 20
49.6866348767
 30
0.0
 11
-895.3186483638
 21
49.6866348767
 31
0.0
  0
LINE
  5
489
330
1F
100
AcDbEntity
  8
0
  6
Continuous
 62
     7
370
    15
100
AcDbLine
 10
-895.3186483638
 20
45.6866863751
 30
0.0
 11
-897.8186497049
 21
45.6866863751
 31
0.0
  0
LINE
  5
48A
330
1F
100
AcDbEntity
  8
0
  6
Continuous
 62
     7
370
    15
100
AcDbLine
 10
-884.7642713742
 20
51.1603001141
 30
0.0
 11
-882.8730308966
 21
51.1603001141
 31
0.0
  0
ARC
  5
48B
330
1F
100
AcDbEntity
  8
0
  6
Continuous
 62
     7
370
    15
100
AcDbCircle
 10
-881.3956120836
 20
51.1638979031
 30
0.0
 40
1.477423193707143
100
AcDbArc
 50
180.1395255778
 51
269.1563232146
  0
ARC
  5
48C
330
1F
100
AcDbEntity
  8
0
  6
Continuous
 62
     7
370
    15
100
AcDbCircle
 10
-886.2416826658
 20
51.1638904185
 30
0.0
 40
1.477415654082073
100
AcDbArc
 50
270.8435338564
 51
359.8607639698
  0
LINE
  5
48D
330
1F
100
AcDbEntity
  8
0
  6
Continuous
 62
     7
370
    15
100
AcDbLine
 10
-884.5431418674
 20
64.2127636456
 30
0.0
 11
-884.7642713742
 21
51.1603001141
 31
0.0
  0
SPLINE
  5
48E
330
1F
100
AcDbEntity
  8
0
  6
Continuous
 62
     7
370
    15
100
AcDbSpline
210
0.0
220
0.0
230
1.0
 70
     8
 71
     3
 72
    15
 73
    11
 74
     0
 42
0.000000001
 43
0.00000001
 40
0.0
 40
0.0
 40
0.0
 40
0.0
 40
0.1416437843311102
 40
0.2721728492313487
 40
0.3916143523929076
 40
0.4999955068660824
 40
0.6083654537557268
 40
0.7277939403581004
 40
0.8583256924265005
 40
1.0
 40
1.0
 40
1.0
 40
1.0
 10
-883.094160403463
 20
64.21276364564044
 30
0.0
 10
-883.1266922006598
 20
64.21898948705662
 30
0.0
 10
-883.1892030406201
 20
64.23095263111645
 30
0.0
 10
-883.3815439590368
 20
64.2439361961018
 30
0.0
 10
-883.5965290685559
 20
64.25169425913646
 30
0.0
 10
-883.8186457150243
 20
64.25475987692275
 30
0.0
 10
-884.0407414526289
 20
64.25169438687917
 30
0.0
 10
-884.2557525325155
 20
64.24393557734298
 30
0.0
 10
-884.4480975373472
 20
64.23095087687658
 30
0.0
 10
-884.5106074909879
 20
64.2189892692655
 30
0.0
 10
-884.5431418673721
 20
64.21276364564044
 30
0.0
  0
LINE
  5
48F
330
1F
100
AcDbEntity
  8
0
  6
Continuous
 62
     7
370
    15
100
AcDbLine
 10
-883.0941604035
 20
64.2127636456
 30
0.0
 11
-882.8730308966
 21
51.1603001141
 31
0.0
  0
SPLINE
  5
490
330
1F
100
AcDbEntity
  8
0
  6
Continuous
 62
     7
370
    15
100
AcDbSpline
210
0.0
220
0.0
230
1.0
 70
     8
 71
     3
 72
    12
 73
     8
 74
     0
 42
0.000000001
 43
0.00000001
 40
0.0
 40
0.0
 40
0.0
 40
0.0
 40
0.0631749419721769
 40
0.1343688041222151
 40
0.2519259412600913
 40
0.4992455643823588
 40
1.0
 40
1.0
 40
1.0
 40
1.0
 10
-883.094160403463
 20
64.21276364564044
 30
0.0
 10
-883.0983364874586
 20
64.3060952224439
 30
0.0
 10
-883.1072187340407
 20
64.5046051374587
 30
0.0
 10
-883.1597965138134
 20
64.81534802808486
 30
0.0
 10
-883.2753287107352
 20
65.20393670543179
 30
0.0
 10
-883.5247268540102
 20
65.61959626292646
 30
0.0
 10
-883.7007935686536
 20
65.65977320025995
 30
0.0
 10
-883.8186511354176
 20
65.6866673016463
 30
0.0
  0
SPLINE
  5
491
330
1F
100
AcDbEntity
  8
0
  6
Continuous
 62
     7
370
    15
100
AcDbSpline
210
0.0
220
0.0
230
1.0
 70
     8
 71
     3
 72
    13
 73
     9
 74
     0
 42
0.000000001
 43
0.00000001
 40
0.0
 40
0.0
 40
0.0
 40
0.0
 40
0.5005363885240022
 40
0.7471168245410663
 40
0.8580644552156265
 40
0.921829953268023
 40
0.9618892133177505
 40
1.0
 40
1.0
 40
1.0
 40
1.0
 10
-883.8186511354176
 20
65.6866673016463
 30
0.0
 10
-883.936635183104
 20
65.65990493418062
 30
0.0
 10
-884.1127419938675
 20
65.6199585577406
 30
0.0
 10
-884.3592658977298
 20
65.20727668402237
 30
0.0
 10
-884.4721605982022
 20
64.83651175715099
 30
0.0
 10
-884.5171756388686
 20
64.57988678974536
 30
0.0
 10
-884.5375070180613
 20
64.38435329162174
 30
0.0
 10
-884.5412950579388
 20
64.26900177365225
 30
0.0
 10
-884.5431418673721
 20
64.21276364564044
 30
0.0
  0
LINE
  5
492
330
1F
100
AcDbEntity
  8
0
  6
Continuous
 62
     7
370
    15
100
AcDbLine
 10
-883.8186511354
 20
65.6866673016
 30
0.0
 11
-882.983806129
 21
65.6866673016
 31
0.0
  0
LINE
  5
493
330
1F
100
AcDbEntity
  8
0
  6
Continuous
 62
     7
370
    15
100
AcDbLine
 10
-884.6534924166
 20
65.6866673016
 30
0.0
 11
-883.8186511354
 21
65.6866673016
 31
0.0
  0
LINE
  5
494
330
1F
100
AcDbEntity
  8
0
  6
Continuous
 62
     7
370
    15
100
AcDbLine
 10
-852.3186501631
 20
2124.1865856209
 30
0.0
 11
-852.3186501631
 21
2154.1865849504
 31
0.0
  0
LINE
  5
495
330
1F
100
AcDbEntity
  8
0
  6
Continuous
 62
     7
370
    15
100
AcDbLine
 10
-850.3186500681
 20
2169.1865846151
 30
0.0
 11
-850.3186500681
 21
2109.1865859562
 31
0.0
  0
LINE
  5
496
330
1F
100
AcDbEntity
  8
0
  6
Continuous
 62
     7
370
    15
100
AcDbLine
 10
-848.3186499731
 20
2109.1865859562
 30
0.0
 11
-848.3186499731
 21
2169.1865846151
 31
0.0
  0
LINE
  5
497
330
1F
100
AcDbEntity
  8
0
  6
Continuous
 62
     8
370
    15
100
AcDbLine
 10
-882.8730308966
 20
51.1603001141
 30
0.0
 11
-881.2562064783
 21
51.1603001141
 31
0.0
  0
LINE
  5
498
330
1F
100
AcDbEntity
  8
0
  6
Continuous
 62
     8
370
    15
100
AcDbLine
 10
-886.3810920672
 20
51.1603001141
 30
0.0
 11
-884.7642713742
 21
51.1603001141
 31
0.0
  0
LINE
  5
499
330
1F
100
AcDbEntity
  8
0
  6
Continuous
 62
     8
370
    15
100
AcDbLine
 10
-884.5431418674
 20
64.2127636456
 30
0.0
 11
-886.1532644884
 21
64.2127636456
 31
0.0
  0
LINE
  5
49A
330
1F
100
AcDbEntity
  8
0
  6
Continuous
 62
     8
370
    15
100
AcDbLine
 10
-881.4840377824
 20
64.2127636456
 30
0.0
 11
-883.0941604035
 21
64.2127636456
 31
0.0
  0
ENDSEC
  0
SECTION
  2
OBJECTS
  0
DICTIONARY
  5
C
330
0
100
AcDbDictionary
281
     1
  3
ACAD_GROUP
350
D
  3
ACAD_LAYOUT
350
1A
  3
ACAD_MLINESTYLE
350
17
  3
ACAD_PLOTSETTINGS
350
19
  3
ACAD_PLOTSTYLENAME
350
E
  3
ACAD_SCALELIST
350
47
  0
DICTIONARY
  5
D
102
{ACAD_REACTORS
330
C
102
}
330
C
100
AcDbDictionary
281
     1
  0
DICTIONARY
  5
1A
102
{ACAD_REACTORS
330
C
102
}
330
C
100
AcDbDictionary
281
     1
  3
Layout1
350
1E
  3
Layout2
350
26
  3
Model
350
22
  0
DICTIONARY
  5
17
102
{ACAD_REACTORS
330
C
102
}
330
C
100
AcDbDictionary
281
     1
  3
Standard
350
18
  0
DICTIONARY
  5
19
102
{ACAD_REACTORS
330
C
102
}
330
C
100
AcDbDictionary
281
     1
  0
ACDBDICTIONARYWDFLT
  5
E
102
{ACAD_REACTORS
330
C
102
}
330
C
100
AcDbDictionary
281
     1
  3
Normal
350
F
100
AcDbDictionaryWithDefault
340
F
  0
DICTIONARY
  5
47
102
{ACAD_REACTORS
330
C
102
}
330
C
100
AcDbDictionary
281
     1
  3
A0
350
48
  3
A1
350
49
  3
A2
350
4A
  3
A3
350
4B
  3
A4
350
4C
  3
A5
350
4D
  3
A6
350
4E
  3
A7
350
4F
  3
A8
350
50
  3
A9
350
51
  3
B0
350
52
  3
B1
350
53
  3
B2
350
54
  3
B3
350
55
  3
B4
350
56
  3
B5
350
57
  3
B6
350
58
  3
B7
350
59
  3
B8
350
5A
  3
B9
350
5B
  3
C0
350
5C
  3
C1
350
5D
  3
C2
350
5E
  3
C3
350
5F
  3
C4
350
60
  3
C5
350
61
  3
C6
350
62
  3
C7
350
63
  3
C8
350
64
  3
C9
350
65
  3
D0
350
66
  3
D1
350
67
  3
D2
350
68
  0
LAYOUT
  5
1E
102
{ACAD_REACTORS
330
1A
102
}
330
1A
100
AcDbPlotSettings
  1

  2
none_device
  4

  6

 40
0.0
 41
0.0
 42
0.0
 43
0.0
 44
0.0
 45
0.0
 46
0.0
 47
0.0
 48
0.0
 49
0.0
140
0.0
141
0.0
142
1.0
143
1.0
 70
   688
 72
     1
 73
     0
 74
     5
  7

 75
    16
147
1.0
148
0.0
149
0.0
100
AcDbLayout
  1
Layout1
 70
     1
 71
     1
 10
0.0
 20
0.0
 11
420.0
 21
297.0
 12
0.0
 22
0.0
 32
0.0
 14
1.0000000000E+20
 24
1.0000000000E+20
 34
1.0000000000E+20
 15
-1.0000000000E+20
 25
-1.0000000000E+20
 35
-1.0000000000E+20
146
0.0
 13
0.0
 23
0.0
 33
0.0
 16
1.0
 26
0.0
 36
0.0
 17
0.0
 27
1.0
 37
0.0
 76
     0
330
1B
  0
LAYOUT
  5
26
102
{ACAD_REACTORS
330
1A
102
}
330
1A
100
AcDbPlotSettings
  1

  2
none_device
  4

  6

 40
0.0
 41
0.0
 42
0.0
 43
0.0
 44
0.0
 45
0.0
 46
0.0
 47
0.0
 48
0.0
 49
0.0
140
0.0
141
0.0
142
1.0
143
1.0
 70
   688
 72
     1
 73
     0
 74
     5
  7

 75
    16
147
1.0
148
0.0
149
0.0
100
AcDbLayout
  1
Layout2
 70
     1
 71
     2
 10
0.0
 20
0.0
 11
0.0
 21
0.0
 12
0.0
 22
0.0
 32
0.0
 14
0.0
 24
0.0
 34
0.0
 15
0.0
 25
0.0
 35
0.0
146
0.0
 13
0.0
 23
0.0
 33
0.0
 16
1.0
 26
0.0
 36
0.0
 17
0.0
 27
1.0
 37
0.0
 76
     0
330
23
  0
LAYOUT
  5
22
102
{ACAD_REACTORS
330
1A
102
}
330
1A
100
AcDbPlotSettings
  1

  2
none_device
  4
Letter_(8.50_x_11.00_Inches)
  6

 40
6.35
 41
6.35
 42
6.35000508
 43
6.35000508
 44
215.9
 45
279.4
 46
0.0
 47
0.0
 48
0.0
 49
0.0
140
0.0
141
0.0
142
1.0
143
1.0
 70
  1712
 72
     1
 73
     0
 74
     0
  7

 75
     0
147
1.0
148
0.0
149
0.0
100
AcDbLayout
  1
Model
 70
     1
 71
     0
 10
0.0
 20
0.0
 11
431.8
 21
279.4
 12
0.0
 22
0.0
 32
0.0
 14
0.0
 24
0.0
 34
0.0
 15
431.8
 25
279.4
 35
0.0
146
0.0
 13
0.0
 23
0.0
 33
0.0
 16
1.0
 26
0.0
 36
0.0
 17
0.0
 27
1.0
 37
0.0
 76
     0
330
1F
331
29
  0
MLINESTYLE
  5
18
102
{ACAD_REACTORS
330
17
102
}
330
17
100
AcDbMlineStyle
  2
Standard
 70
     0
  3

 62
   256
 51
90.0
 52
90.0
 71
     2
 49
0.5
 62
   256
  6
BYLAYER
 49
-0.5
 62
   256
  6
BYLAYER
  0
ACDBPLACEHOLDER
  5
F
102
{ACAD_REACTORS
330
E
102
}
330
E
  0
SCALE
  5
48
102
{ACAD_REACTORS
330
47
102
}
330
47
100
AcDbScale
 70
     0
300
1:1
140
1.0
141
1.0
290
     1
  0
SCALE
  5
49
102
{ACAD_REACTORS
330
47
102
}
330
47
100
AcDbScale
 70
     0
300
1:2
140
1.0
141
2.0
290
     0
  0
SCALE
  5
4A
102
{ACAD_REACTORS
330
47
102
}
330
47
100
AcDbScale
 70
     0
300
1:4
140
1.0
141
4.0
290
     0
  0
SCALE
  5
4B
102
{ACAD_REACTORS
330
47
102
}
330
47
100
AcDbScale
 70
     0
300
1:5
140
1.0
141
5.0
290
     0
  0
SCALE
  5
4C
102
{ACAD_REACTORS
330
47
102
}
330
47
100
AcDbScale
 70
     0
300
1:8
140
1.0
141
8.0
290
     0
  0
SCALE
  5
4D
102
{ACAD_REACTORS
330
47
102
}
330
47
100
AcDbScale
 70
     0
300
1:10
140
1.0
141
10.0
290
     0
  0
SCALE
  5
4E
102
{ACAD_REACTORS
330
47
102
}
330
47
100
AcDbScale
 70
     0
300
1:16
140
1.0
141
16.0
290
     0
  0
SCALE
  5
4F
102
{ACAD_REACTORS
330
47
102
}
330
47
100
AcDbScale
 70
     0
300
1:20
140
1.0
141
20.0
290
     0
  0
SCALE
  5
50
102
{ACAD_REACTORS
330
47
102
}
330
47
100
AcDbScale
 70
     0
300
1:30
140
1.0
141
30.0
290
     0
  0
SCALE
  5
51
102
{ACAD_REACTORS
330
47
102
}
330
47
100
AcDbScale
 70
     0
300
1:40
140
1.0
141
40.0
290
     0
  0
SCALE
  5
52
102
{ACAD_REACTORS
330
47
102
}
330
47
100
AcDbScale
 70
     0
300
1:50
140
1.0
141
50.0
290
     0
  0
SCALE
  5
53
102
{ACAD_REACTORS
330
47
102
}
330
47
100
AcDbScale
 70
     0
300
1:100
140
1.0
141
100.0
290
     0
  0
SCALE
  5
54
102
{ACAD_REACTORS
330
47
102
}
330
47
100
AcDbScale
 70
     0
300
2:1
140
2.0
141
1.0
290
     0
  0
SCALE
  5
55
102
{ACAD_REACTORS
330
47
102
}
330
47
100
AcDbScale
 70
     0
300
4:1
140
4.0
141
1.0
290
     0
  0
SCALE
  5
56
102
{ACAD_REACTORS
330
47
102
}
330
47
100
AcDbScale
 70
     0
300
8:1
140
8.0
141
1.0
290
     0
  0
SCALE
  5
57
102
{ACAD_REACTORS
330
47
102
}
330
47
100
AcDbScale
 70
     0
300
10:1
140
10.0
141
1.0
290
     0
  0
SCALE
  5
58
102
{ACAD_REACTORS
330
47
102
}
330
47
100
AcDbScale
 70
     0
300
100:1
140
100.0
141
1.0
290
     0
  0
SCALE
  5
59
102
{ACAD_REACTORS
330
47
102
}
330
47
100
AcDbScale
 70
     0
300
1/128" = 1'-0"
140
0.0078125
141
12.0
290
     0
  0
SCALE
  5
5A
102
{ACAD_REACTORS
330
47
102
}
330
47
100
AcDbScale
 70
     0
300
1/64" = 1'-0"
140
0.015625
141
12.0
290
     0
  0
SCALE
  5
5B
102
{ACAD_REACTORS
330
47
102
}
330
47
100
AcDbScale
 70
     0
300
1/32" = 1'-0"
140
0.03125
141
12.0
290
     0
  0
SCALE
  5
5C
102
{ACAD_REACTORS
330
47
102
}
330
47
100
AcDbScale
 70
     0
300
1/16" = 1'-0"
140
0.0625
141
12.0
290
     0
  0
SCALE
  5
5D
102
{ACAD_REACTORS
330
47
102
}
330
47
100
AcDbScale
 70
     0
300
3/32" = 1'-0"
140
0.09375
141
12.0
290
     0
  0
SCALE
  5
5E
102
{ACAD_REACTORS
330
47
102
}
330
47
100
AcDbScale
 70
     0
300
1/8" = 1'-0"
140
0.125
141
12.0
290
     0
  0
SCALE
  5
5F
102
{ACAD_REACTORS
330
47
102
}
330
47
100
AcDbScale
 70
     0
300
3/16" = 1'-0"
140
0.1875
141
12.0
290
     0
  0
SCALE
  5
60
102
{ACAD_REACTORS
330
47
102
}
330
47
100
AcDbScale
 70
     0
300
1/4" = 1'-0"
140
0.25
141
12.0
290
     0
  0
SCALE
  5
61
102
{ACAD_REACTORS
330
47
102
}
330
47
100
AcDbScale
 70
     0
300
3/8" = 1'-0"
140
0.375
141
12.0
290
     0
  0
SCALE
  5
62
102
{ACAD_REACTORS
330
47
102
}
330
47
100
AcDbScale
 70
     0
300
1/2" = 1'-0"
140
0.5
141
12.0
290
     0
  0
SCALE
  5
63
102
{ACAD_REACTORS
330
47
102
}
330
47
100
AcDbScale
 70
     0
300
3/4" = 1'-0"
140
0.75
141
12.0
290
     0
  0
SCALE
  5
64
102
{ACAD_REACTORS
330
47
102
}
330
47
100
AcDbScale
 70
     0
300
1" = 1'-0"
140
1.0
141
12.0
290
     0
  0
SCALE
  5
65
102
{ACAD_REACTORS
330
47
102
}
330
47
100
AcDbScale
 70
     0
300
1-1/2" = 1'-0"
140
1.5
141
12.0
290
     0
  0
SCALE
  5
66
102
{ACAD_REACTORS
330
47
102
}
330
47
100
AcDbScale
 70
     0
300
3" = 1'-0"
140
3.0
141
12.0
290
     0
  0
SCALE
  5
67
102
{ACAD_REACTORS
330
47
102
}
330
47
100
AcDbScale
 70
     0
300
6" = 1'-0"
140
6.0
141
12.0
290
     0
  0
SCALE
  5
68
102
{ACAD_REACTORS
330
47
102
}
330
47
100
AcDbScale
 70
     0
300
1'-0" = 1'-0"
140
12.0
141
12.0
290
     0
  0
ENDSEC
  0
EOF
